  0
SECTION
  2
HEADER
  9
$ACADVER
  1
AC1009
  9
$DWGCODEPAGE
  3
undefined
  9
$INSBASE
 10
0.0
 20
0.0
 30
0.0
  9
$EXTMIN
 10
-40.0
 20
-40.0
 30
0.0
  9
$EXTMAX
 10
40.0
 20
57.07565074059659
 30
0.0
  9
$LIMMIN
 10
0.0
 20
0.0
  9
$LIMMAX
 10
12.0
 20
9.0
  9
$ORTHOMODE
 70
     0
  9
$REGENMODE
 70
     1
  9
$FILLMODE
 70
     1
  9
$QTEXTMODE
 70
     0
  9
$MIRRTEXT
 70
     1
  9
$DRAGMODE
 70
     2
  9
$LTSCALE
 40
1.0
  9
$OSMODE
 70
    37
  9
$ATTMODE
 70
     1
  9
$TEXTSIZE
 40
0.2
  9
$TRACEWID
 40
0.05
  9
$TEXTSTYLE
  7
STANDARD
  9
$CLAYER
  8
0
  9
$CELTYPE
  6
BYLAYER
  9
$CECOLOR
 62
   256
  9
$DIMSCALE
 40
1.0
  9
$DIMASZ
 40
0.18
  9
$DIMEXO
 40
0.0625
  9
$DIMDLI
 40
0.38
  9
$DIMRND
 40
0.0
  9
$DIMDLE
 40
0.0
  9
$DIMEXE
 40
0.18
  9
$DIMTP
 40
0.0
  9
$DIMTM
 40
0.0
  9
$DIMTXT
 40
0.18
  9
$DIMCEN
 40
0.09
  9
$DIMTSZ
 40
0.0
  9
$DIMTOL
 70
     0
  9
$DIMLIM
 70
     0
  9
$DIMTIH
 70
     1
  9
$DIMTOH
 70
     1
  9
$DIMSE1
 70
     0
  9
$DIMSE2
 70
     0
  9
$DIMTAD
 70
     0
  9
$DIMZIN
 70
     0
  9
$DIMBLK
  1

  9
$DIMASO
 70
     1
  9
$DIMSHO
 70
     1
  9
$DIMPOST
  1

  9
$DIMAPOST
  1

  9
$DIMALT
 70
     0
  9
$DIMALTD
 70
     2
  9
$DIMALTF
 40
25.4
  9
$DIMLFAC
 40
1.0
  9
$DIMTOFL
 70
     0
  9
$DIMTVP
 40
0.0
  9
$DIMTIX
 70
     0
  9
$DIMSOXD
 70
     0
  9
$DIMSAH
 70
     0
  9
$DIMBLK1
  1

  9
$DIMBLK2
  1

  9
$DIMSTYLE
  2
STANDARD
  9
$DIMCLRD
 70
     0
  9
$DIMCLRE
 70
     0
  9
$DIMCLRT
 70
     0
  9
$DIMTFAC
 40
1.0
  9
$DIMGAP
 40
0.09
  9
$LUNITS
 70
     2
  9
$LUPREC
 70
     4
  9
$SKETCHINC
 40
0.1
  9
$FILLETRAD
 40
0.5
  9
$AUNITS
 70
     0
  9
$AUPREC
 70
     0
  9
$MENU
  1
.
  9
$ELEVATION
 40
0.0
  9
$PELEVATION
 40
0.0
  9
$THICKNESS
 40
0.0
  9
$LIMCHECK
 70
     0
  9
$CHAMFERA
 40
0.0
  9
$CHAMFERB
 40
0.0
  9
$SKPOLY
 70
     0
  9
$TDCREATE
 40
2454910.5
  9
$TDUPDATE
 40
2460212.828567164
  9
$TDINDWG
 40
0.0000000116
  9
$TDUSRTIMER
 40
0.0000000116
  9
$USRTIMER
 70
     1
  9
$ANGBASE
 50
0.0
  9
$ANGDIR
 70
     0
  9
$PDMODE
 70
     0
  9
$PDSIZE
 40
0.0
  9
$PLINEWID
 40
0.0
  9
$COORDS
 70
     1
  9
$SPLFRAME
 70
     0
  9
$SPLINETYPE
 70
     6
  9
$SPLINESEGS
 70
     8
  9
$ATTDIA
 70
     0
  9
$ATTREQ
 70
     1
  9
$HANDLING
 70
     1
  9
$HANDSEED
  5
73A
  9
$SURFTAB1
 70
     6
  9
$SURFTAB2
 70
     6
  9
$SURFTYPE
 70
     6
  9
$SURFU
 70
     6
  9
$SURFV
 70
     6
  9
$UCSNAME
  2

  9
$UCSORG
 10
0.0
 20
0.0
 30
0.0
  9
$UCSXDIR
 10
1.0
 20
0.0
 30
0.0
  9
$UCSYDIR
 10
0.0
 20
1.0
 30
0.0
  9
$PUCSNAME
  2

  9
$PUCSORG
 10
0.0
 20
0.0
 30
0.0
  9
$PUCSXDIR
 10
1.0
 20
0.0
 30
0.0
  9
$PUCSYDIR
 10
0.0
 20
1.0
 30
0.0
  9
$USERI1
 70
     0
  9
$USERI2
 70
     0
  9
$USERI3
 70
     0
  9
$USERI4
 70
     0
  9
$USERI5
 70
     0
  9
$USERR1
 40
0.0
  9
$USERR2
 40
0.0
  9
$USERR3
 40
0.0
  9
$USERR4
 40
0.0
  9
$USERR5
 40
0.0
  9
$WORLDVIEW
 70
     1
  9
$SHADEDGE
 70
     3
  9
$SHADEDIF
 70
    70
  9
$TILEMODE
 70
     1
  9
$MAXACTVP
 70
    64
  9
$PLIMCHECK
 70
     0
  9
$PEXTMIN
 10
1.000000000000000E+20
 20
1.000000000000000E+20
 30
1.000000000000000E+20
  9
$PEXTMAX
 10
-1.000000000000000E+20
 20
-1.000000000000000E+20
 30
-1.000000000000000E+20
  9
$PLIMMIN
 10
0.0
 20
0.0
  9
$PLIMMAX
 10
12.0
 20
9.0
  9
$UNITMODE
 70
     0
  9
$VISRETAIN
 70
     1
  9
$PLINEGEN
 70
     0
  9
$PSLTSCALE
 70
     1
  0
ENDSEC
  0
SECTION
  2
TABLES
  0
TABLE
  2
VPORT
 70
     1
  0
VPORT
  2
*ACTIVE
 70
     0
 10
0.0
 20
0.0
 11
1.0
 21
1.0
 12
10.42990654205607
 22
4.5
 13
0.0
 23
0.0
 14
0.5
 24
0.5
 15
0.5
 25
0.5
 16
0.0
 26
0.0
 36
1.0
 17
0.0
 27
0.0
 37
0.0
 40
9.0
 41
1.972972972850329
 42
50.0
 43
0.0
 44
0.0
 50
0.0
 51
0.0
 71
     0
 72
   100
 73
     1
 74
     3
 75
     0
 76
     0
 77
     0
 78
     0
  0
ENDTAB
  0
TABLE
  2
LTYPE
 70
     2
  0
LTYPE
  2
CONTINUOUS
 70
     0
  3
Solid line
 72
    65
 73
     0
 40
0.0
  0
LTYPE
  2
CONTINUOUS2
 70
     0
  3
Solid Line
 72
    65
 73
     0
 40
0.0
  0
ENDTAB
  0
TABLE
  2
LAYER
 70
     4
  0
LAYER
  2
0
 70
     0
 62
     7
  6
CONTINUOUS
  0
LAYER
  2
CONTOUR
 70
     0
 62
     7
  6
CONTINUOUS
  0
LAYER
  2
REFERENCE_POINTS
 70
     0
 62
     1
  6
CONTINUOUS
  0
LAYER
  2
DIMENSIONI
 70
     0
 62
   253
  6
CONTINUOUS
  0
ENDTAB
  0
TABLE
  2
STYLE
 70
     1
  0
STYLE
  2
STANDARD
 70
     0
 40
0.0
 41
1.0
 50
0.0
 71
     0
 42
0.2
  3
txt
  4

  0
ENDTAB
  0
TABLE
  2
VIEW
 70
     0
  0
ENDTAB
  0
TABLE
  2
UCS
 70
     0
  0
ENDTAB
  0
TABLE
  2
APPID
 70
     1
  0
APPID
  2
ACAD
 70
     0
  0
ENDTAB
  0
TABLE
  2
DIMSTYLE
 70
     1
  0
DIMSTYLE
  2
STANDARD
 70
     0
  3

  4

  5

  6

  7

 40
1.0
 41
0.18
 42
0.0625
 43
0.38
 44
0.18
 45
0.0
 46
0.0
 47
0.0
 48
0.0
140
0.18
141
0.09
142
0.0
143
25.4
144
1.0
145
0.0
146
1.0
147
0.09
 71
     0
 72
     0
 73
     1
 74
     1
 75
     0
 76
     0
 77
     0
 78
     0
170
     0
171
     2
172
     0
173
     0
174
     0
175
     0
176
     0
177
     0
178
     0
  0
ENDTAB
  0
ENDSEC
  0
SECTION
  2
BLOCKS
  0
BLOCK
  8
0
  2
$MODEL_SPACE
 70
     0
 10
0.0
 20
0.0
 30
0.0
  3
$MODEL_SPACE
  1

  0
ENDBLK
  5
21
  8
0
  0
BLOCK
 67
     1
  8
0
  2
$PAPER_SPACE
 70
     0
 10
0.0
 20
0.0
 30
0.0
  3
$PAPER_SPACE
  1

  0
ENDBLK
  5
1D
 67
     1
  8
0
  0
ENDSEC
  0
SECTION
  2
ENTITIES
  0
POLYLINE
  5
70
  8
CONTOUR
 66
     1
 10
0.0
 20
0.0
 30
0.0
 70
     1
  0
VERTEX
  5
E2
  8
CONTOUR
 10
16.77822926038384
 20
-2.733675652126296
 30
0.0
 42
0.4430816874995483
  0
VERTEX
  5
E3
  8
CONTOUR
 10
15.39442045903805
 20
-0.9949012006062805
 30
0.0
  0
VERTEX
  5
E4
  8
CONTOUR
 10
15.39442
 20
-0.994900000000003
 30
0.0
 42
0.3860385881905351
  0
VERTEX
  5
E5
  8
CONTOUR
 10
13.8175710407212
 20
-2.250719960401996
 30
0.0
 42
-0.3224943857865175
  0
VERTEX
  5
E6
  8
CONTOUR
 10
2.250719960401995
 20
-13.81757104072119
 30
0.0
 42
0.3860385881905274
  0
VERTEX
  5
E7
  8
CONTOUR
 10
0.9948975310194115
 20
-15.3944183178878
 30
0.0
  0
VERTEX
  5
E8
  8
CONTOUR
 10
0.9949000000000083
 20
-15.39442
 30
0.0
 42
0.4430816874995485
  0
VERTEX
  5
E9
  8
CONTOUR
 10
2.73367667509546
 20
-16.77822847994385
 30
0.0
 42
0.322472034494693
  0
SEQEND
  5
6D1
  8
CONTOUR
  0
POLYLINE
  5
71
  8
CONTOUR
 66
     1
 10
0.0
 20
0.0
 30
0.0
 70
     1
  0
VERTEX
  5
EA
  8
CONTOUR
 10
-12.55821728374296
 20
-26.13890714927523
 30
0.0
 42
-0.3999276334009312
  0
VERTEX
  5
EB
  8
CONTOUR
 10
-11.82565
 20
-28.07355
 30
0.0
  0
VERTEX
  5
EC
  8
CONTOUR
 10
-11.82565704918335
 20
-28.07355680982376
 30
0.0
 42
-0.4287312762188911
  0
VERTEX
  5
ED
  8
CONTOUR
 10
-13.8578784125837
 20
-28.84288632686028
 30
0.0
 42
-0.1703721904070022
  0
VERTEX
  5
EE
  8
CONTOUR
 10
-28.84288894557539
 20
-13.85788180963874
 30
0.0
 42
-0.4287312762188912
  0
VERTEX
  5
EF
  8
CONTOUR
 10
-28.07355
 20
-11.82565
 30
0.0
  0
VERTEX
  5
F0
  8
CONTOUR
 10
-28.07355065488521
 20
-11.82565660272008
 30
0.0
 42
-0.3999276334009312
  0
VERTEX
  5
F1
  8
CONTOUR
 10
-26.13890714927523
 20
-12.55821728374296
 30
0.0
 42
0.1703802723744878
  0
SEQEND
  5
6D2
  8
CONTOUR
  0
POLYLINE
  5
72
  8
CONTOUR
 66
     1
 10
0.0
 20
0.0
 30
0.0
 70
     1
  0
VERTEX
  5
F2
  8
CONTOUR
 10
-2.349713618226971
 20
-23.88394729912717
 30
0.0
 42
-0.3578676405017556
  0
VERTEX
  5
F3
  8
CONTOUR
 10
-23.88394729912716
 20
-2.349713618226973
 30
0.0
 42
0.3967744361620187
  0
VERTEX
  5
F4
  8
CONTOUR
 10
-25.43463470354594
 20
-0.9984303873750111
 30
0.0
  0
VERTEX
  5
F5
  8
CONTOUR
 10
-25.43463
 20
-0.9984300000000008
 30
0.0
 42
0.4316373661635245
  0
VERTEX
  5
F6
  8
CONTOUR
 10
-26.86935256634253
 20
-2.643873247161311
 30
0.0
 42
0.3578582884812799
  0
VERTEX
  5
F7
  8
CONTOUR
 10
-2.643872286688783
 20
-26.86935049956475
 30
0.0
 42
0.4316373661635244
  0
VERTEX
  5
F8
  8
CONTOUR
 10
-0.9984357353830333
 20
-25.43463283012888
 30
0.0
  0
VERTEX
  5
F9
  8
CONTOUR
 10
-0.9984299999999919
 20
-25.43463
 30
0.0
 42
0.3967744361620186
  0
SEQEND
  5
6D3
  8
CONTOUR
  0
POLYLINE
  5
73
  8
CONTOUR
 66
     1
 10
0.0
 20
0.0
 30
0.0
 70
     1
  0
VERTEX
  5
FA
  8
CONTOUR
 10
-28.84288632686027
 20
13.85787841258371
 30
0.0
 42
0.4287312762188887
  0
VERTEX
  5
FB
  8
CONTOUR
 10
-28.07355680982376
 20
11.82565704918335
 30
0.0
  0
VERTEX
  5
FC
  8
CONTOUR
 10
-28.07355
 20
11.82564999999999
 30
0.0
 42
0.3999276334009312
  0
VERTEX
  5
FD
  8
CONTOUR
 10
-26.13890714927522
 20
12.55821728374297
 30
0.0
 42
-0.1703802723744869
  0
VERTEX
  5
FE
  8
CONTOUR
 10
-12.55821728374296
 20
26.13890714927523
 30
0.0
 42
0.3999276334009313
  0
VERTEX
  5
FF
  8
CONTOUR
 10
-11.82565660272008
 20
28.07355065488521
 30
0.0
  0
VERTEX
  5
100
  8
CONTOUR
 10
-11.82565
 20
28.07355
 30
0.0
 42
0.4287312762188912
  0
VERTEX
  5
101
  8
CONTOUR
 10
-13.85788180963874
 20
28.8428889455754
 30
0.0
 42
0.1703721904070018
  0
SEQEND
  5
6D4
  8
CONTOUR
  0
POLYLINE
  5
74
  8
CONTOUR
 66
     1
 10
0.0
 20
0.0
 30
0.0
 70
     1
  0
VERTEX
  5
102
  8
CONTOUR
 10
-23.88394729912716
 20
2.34971361822697
 30
0.0
 42
-0.3967744361620152
  0
VERTEX
  5
103
  8
CONTOUR
 10
-25.43463
 20
0.9984299999999973
 30
0.0
  0
VERTEX
  5
104
  8
CONTOUR
 10
-25.43463283012888
 20
0.9984357353830386
 30
0.0
 42
-0.4316373661635244
  0
VERTEX
  5
105
  8
CONTOUR
 10
-26.86935049956475
 20
2.643872286688774
 30
0.0
 42
-0.3578582884812805
  0
VERTEX
  5
106
  8
CONTOUR
 10
-2.643873247161302
 20
26.86935256634254
 30
0.0
 42
-0.4316373661635245
  0
VERTEX
  5
107
  8
CONTOUR
 10
-0.9984299999999919
 20
25.43463
 30
0.0
  0
VERTEX
  5
108
  8
CONTOUR
 10
-0.9984303873750022
 20
25.43463470354594
 30
0.0
 42
-0.3967744361620218
  0
VERTEX
  5
109
  8
CONTOUR
 10
-2.349713618226971
 20
23.88394729912717
 30
0.0
 42
0.3578676405017557
  0
SEQEND
  5
6D5
  8
CONTOUR
  0
POLYLINE
  5
75
  8
CONTOUR
 66
     1
 10
0.0
 20
0.0
 30
0.0
 70
     1
  0
VERTEX
  5
10A
  8
CONTOUR
 10
-18.85782706418296
 20
2.312946464490457
 30
0.0
 42
-0.3929717065169445
  0
VERTEX
  5
10B
  8
CONTOUR
 10
-20.41983
 20
0.9970200000000045
 30
0.0
  0
VERTEX
  5
10C
  8
CONTOUR
 10
-20.41983240552496
 20
0.9970238436119541
 30
0.0
 42
-0.4359745206042617
  0
VERTEX
  5
10D
  8
CONTOUR
 10
-21.83545944519238
 20
2.678521605437664
 30
0.0
 42
-0.34439164861816
  0
VERTEX
  5
10E
  8
CONTOUR
 10
-2.678523684973037
 20
21.8354602529698
 30
0.0
 42
-0.4359745206042666
  0
VERTEX
  5
10F
  8
CONTOUR
 10
-0.9970199999999991
 20
20.41983
 30
0.0
  0
VERTEX
  5
110
  8
CONTOUR
 10
-0.9970230778533633
 20
20.41982671623805
 30
0.0
 42
-0.3929717065169477
  0
VERTEX
  5
111
  8
CONTOUR
 10
-2.312946464490459
 20
18.85782706418297
 30
0.0
 42
0.3444008246189987
  0
SEQEND
  5
6D6
  8
CONTOUR
  0
POLYLINE
  5
76
  8
CONTOUR
 66
     1
 10
0.0
 20
0.0
 30
0.0
 70
     1
  0
VERTEX
  5
112
  8
CONTOUR
 10
-16.77822926038382
 20
2.733675652126307
 30
0.0
 42
-0.3224720344946935
  0
VERTEX
  5
113
  8
CONTOUR
 10
-2.73367667509546
 20
16.77822847994385
 30
0.0
 42
-0.4430816874995485
  0
VERTEX
  5
114
  8
CONTOUR
 10
-0.9948999999999941
 20
15.39441999999999
 30
0.0
  0
VERTEX
  5
115
  8
CONTOUR
 10
-0.9948975310193973
 20
15.3944183178878
 30
0.0
 42
-0.3860385881905351
  0
VERTEX
  5
116
  8
CONTOUR
 10
-2.250719960401987
 20
13.81757104072119
 30
0.0
 42
0.3224943857865175
  0
VERTEX
  5
117
  8
CONTOUR
 10
-13.81757104072118
 20
2.250719960401993
 30
0.0
 42
-0.3860385881905274
  0
VERTEX
  5
118
  8
CONTOUR
 10
-15.39442
 20
0.9948999999999995
 30
0.0
  0
VERTEX
  5
119
  8
CONTOUR
 10
-15.39442045903805
 20
0.9949012006062912
 30
0.0
 42
-0.4430816874995483
  0
SEQEND
  5
6D7
  8
CONTOUR
  0
POLYLINE
  5
77
  8
CONTOUR
 66
     1
 10
0.0
 20
0.0
 30
0.0
 70
     1
  0
VERTEX
  5
11A
  8
CONTOUR
 10
12.55821728374298
 20
-26.13890714927522
 30
0.0
 42
0.3999276334009312
  0
VERTEX
  5
11B
  8
CONTOUR
 10
11.82565660272008
 20
-28.07355065488521
 30
0.0
  0
VERTEX
  5
11C
  8
CONTOUR
 10
11.82565
 20
-28.07355
 30
0.0
 42
0.4287312762188792
  0
VERTEX
  5
11D
  8
CONTOUR
 10
13.85788180963875
 20
-28.8428889455754
 30
0.0
 42
0.1703721904070025
  0
VERTEX
  5
11E
  8
CONTOUR
 10
28.84288632686029
 20
-13.8578784125837
 30
0.0
 42
0.4287312762188911
  0
VERTEX
  5
11F
  8
CONTOUR
 10
28.07355680982376
 20
-11.82565704918335
 30
0.0
  0
VERTEX
  5
120
  8
CONTOUR
 10
28.07355
 20
-11.82565
 30
0.0
 42
0.3999276334009312
  0
VERTEX
  5
121
  8
CONTOUR
 10
26.13890714927523
 20
-12.55821728374298
 30
0.0
 42
-0.1703802723744877
  0
SEQEND
  5
6D8
  8
CONTOUR
  0
POLYLINE
  5
78
  8
CONTOUR
 66
     1
 10
0.0
 20
0.0
 30
0.0
 70
     1
  0
VERTEX
  5
122
  8
CONTOUR
 10
23.88394729912717
 20
-2.349713618226994
 30
0.0
 42
-0.3578676405017545
  0
VERTEX
  5
123
  8
CONTOUR
 10
2.349713618226993
 20
-23.88394729912717
 30
0.0
 42
0.3967744361620174
  0
VERTEX
  5
124
  8
CONTOUR
 10
0.9984303873750164
 20
-25.43463470354593
 30
0.0
  0
VERTEX
  5
125
  8
CONTOUR
 10
0.9984300000000061
 20
-25.43463
 30
0.0
 42
0.4316373661635245
  0
VERTEX
  5
126
  8
CONTOUR
 10
2.643873247161316
 20
-26.86935256634253
 30
0.0
 42
0.3578582884812805
  0
VERTEX
  5
127
  8
CONTOUR
 10
26.86935049956475
 20
-2.643872286688792
 30
0.0
 42
0.4316373661635244
  0
VERTEX
  5
128
  8
CONTOUR
 10
25.43463283012888
 20
-0.9984357353830422
 30
0.0
  0
VERTEX
  5
129
  8
CONTOUR
 10
25.43463000000001
 20
-0.9984300000000008
 30
0.0
 42
0.3967744361620219
  0
SEQEND
  5
6D9
  8
CONTOUR
  0
POLYLINE
  5
79
  8
CONTOUR
 66
     1
 10
0.0
 20
0.0
 30
0.0
 70
     1
  0
VERTEX
  5
12A
  8
CONTOUR
 10
18.85782706418298
 20
-2.312946464490453
 30
0.0
 42
-0.3444008246189982
  0
VERTEX
  5
12B
  8
CONTOUR
 10
2.312946464490466
 20
-18.85782706418297
 30
0.0
 42
0.3929717065169445
  0
VERTEX
  5
12C
  8
CONTOUR
 10
0.9970230778533633
 20
-20.41982671623805
 30
0.0
  0
VERTEX
  5
12D
  8
CONTOUR
 10
0.9970199999999991
 20
-20.41983
 30
0.0
 42
0.4359745206042666
  0
VERTEX
  5
12E
  8
CONTOUR
 10
2.678523684973037
 20
-21.8354602529698
 30
0.0
 42
0.3443916486181594
  0
VERTEX
  5
12F
  8
CONTOUR
 10
21.83545944519239
 20
-2.678521605437668
 30
0.0
 42
0.4359745206042666
  0
VERTEX
  5
130
  8
CONTOUR
 10
20.41983240552496
 20
-0.9970238436119576
 30
0.0
  0
VERTEX
  5
131
  8
CONTOUR
 10
20.41983
 20
-0.9970199999999938
 30
0.0
 42
0.3929717065169478
  0
SEQEND
  5
6DA
  8
CONTOUR
  0
POLYLINE
  5
7A
  8
CONTOUR
 66
     1
 10
0.0
 20
0.0
 30
0.0
 70
     1
  0
VERTEX
  5
132
  8
CONTOUR
 10
-2.733675652126294
 20
-16.77822926038383
 30
0.0
 42
0.4430816874995483
  0
VERTEX
  5
133
  8
CONTOUR
 10
-0.9949012006062858
 20
-15.39442045903805
 30
0.0
  0
VERTEX
  5
134
  8
CONTOUR
 10
-0.9948999999999941
 20
-15.39442
 30
0.0
 42
0.3860385881905274
  0
VERTEX
  5
135
  8
CONTOUR
 10
-2.250719960401995
 20
-13.81757104072119
 30
0.0
 42
-0.322494385786517
  0
VERTEX
  5
136
  8
CONTOUR
 10
-13.81757104072118
 20
-2.250719960401996
 30
0.0
 42
0.3860385881905274
  0
VERTEX
  5
137
  8
CONTOUR
 10
-15.3944183178878
 20
-0.9948975310194061
 30
0.0
  0
VERTEX
  5
138
  8
CONTOUR
 10
-15.39442
 20
-0.994900000000003
 30
0.0
 42
0.4430816874995485
  0
VERTEX
  5
139
  8
CONTOUR
 10
-16.77822847994385
 20
-2.733676675095454
 30
0.0
 42
0.3224720344946935
  0
SEQEND
  5
6DB
  8
CONTOUR
  0
POLYLINE
  5
7B
  8
CONTOUR
 66
     1
 10
0.0
 20
0.0
 30
0.0
 70
     1
  0
VERTEX
  5
13A
  8
CONTOUR
 10
-18.85782706418297
 20
-2.312946464490453
 30
0.0
 42
0.344400824618998
  0
VERTEX
  5
13B
  8
CONTOUR
 10
-2.312946464490466
 20
-18.85782706418297
 30
0.0
 42
-0.3929717065169445
  0
VERTEX
  5
13C
  8
CONTOUR
 10
-0.9970199999999991
 20
-20.41983
 30
0.0
  0
VERTEX
  5
13D
  8
CONTOUR
 10
-0.997023843611963
 20
-20.41983240552496
 30
0.0
 42
-0.4359745206042649
  0
VERTEX
  5
13E
  8
CONTOUR
 10
-2.678521605437687
 20
-21.83545944519238
 30
0.0
 42
-0.3443916486181587
  0
VERTEX
  5
13F
  8
CONTOUR
 10
-21.8354602529698
 20
-2.678523684973031
 30
0.0
 42
-0.4359745206042666
  0
VERTEX
  5
140
  8
CONTOUR
 10
-20.41983
 20
-0.9970199999999938
 30
0.0
  0
VERTEX
  5
141
  8
CONTOUR
 10
-20.41982671623805
 20
-0.997023077853358
 30
0.0
 42
-0.3929717065169445
  0
SEQEND
  5
6DC
  8
CONTOUR
  0
POLYLINE
  5
7C
  8
CONTOUR
 66
     1
 10
0.0
 20
0.0
 30
0.0
 70
     1
  0
VERTEX
  5
142
  8
CONTOUR
 10
2.733675652126308
 20
16.77822926038382
 30
0.0
 42
0.4430816874995483
  0
VERTEX
  5
143
  8
CONTOUR
 10
0.9949012006062858
 20
15.39442045903804
 30
0.0
  0
VERTEX
  5
144
  8
CONTOUR
 10
0.9949000000000083
 20
15.39441999999999
 30
0.0
 42
0.3860385881905351
  0
VERTEX
  5
145
  8
CONTOUR
 10
2.250719960402002
 20
13.81757104072119
 30
0.0
 42
-0.3224943857865175
  0
VERTEX
  5
146
  8
CONTOUR
 10
13.8175710407212
 20
2.250719960401993
 30
0.0
 42
0.3860385881905351
  0
VERTEX
  5
147
  8
CONTOUR
 10
15.3944183178878
 20
0.9948975310194026
 30
0.0
  0
VERTEX
  5
148
  8
CONTOUR
 10
15.39442
 20
0.9948999999999995
 30
0.0
 42
0.4430816874995485
  0
VERTEX
  5
149
  8
CONTOUR
 10
16.77822847994386
 20
2.733676675095465
 30
0.0
 42
0.322472034494693
  0
SEQEND
  5
6DD
  8
CONTOUR
  0
POLYLINE
  5
7D
  8
CONTOUR
 66
     1
 10
0.0
 20
0.0
 30
0.0
 70
     1
  0
VERTEX
  5
14A
  8
CONTOUR
 10
2.312946464490466
 20
18.85782706418297
 30
0.0
 42
-0.3929717065169478
  0
VERTEX
  5
14B
  8
CONTOUR
 10
0.9970199999999991
 20
20.41983
 30
0.0
  0
VERTEX
  5
14C
  8
CONTOUR
 10
0.997023843611963
 20
20.41983240552496
 30
0.0
 42
-0.4359745206042666
  0
VERTEX
  5
14D
  8
CONTOUR
 10
2.678521605437673
 20
21.83545944519238
 30
0.0
 42
-0.3443916486181604
  0
VERTEX
  5
14E
  8
CONTOUR
 10
21.8354602529698
 20
2.678523684973028
 30
0.0
 42
-0.4359745206042666
  0
VERTEX
  5
14F
  8
CONTOUR
 10
20.41983
 20
0.9970200000000045
 30
0.0
  0
VERTEX
  5
150
  8
CONTOUR
 10
20.41982671623806
 20
0.9970230778533544
 30
0.0
 42
-0.3929717065169477
  0
VERTEX
  5
151
  8
CONTOUR
 10
18.85782706418298
 20
2.31294646449045
 30
0.0
 42
0.3444008246189979
  0
SEQEND
  5
6DE
  8
CONTOUR
  0
POLYLINE
  5
7E
  8
CONTOUR
 66
     1
 10
0.0
 20
0.0
 30
0.0
 70
     1
  0
VERTEX
  5
152
  8
CONTOUR
 10
2.349713618226986
 20
23.88394729912717
 30
0.0
 42
-0.3967744361620219
  0
VERTEX
  5
153
  8
CONTOUR
 10
0.9984300000000061
 20
25.43463
 30
0.0
  0
VERTEX
  5
154
  8
CONTOUR
 10
0.9984357353830475
 20
25.43463283012889
 30
0.0
 42
-0.4316373661635244
  0
VERTEX
  5
155
  8
CONTOUR
 10
2.643872286688783
 20
26.86935049956475
 30
0.0
 42
-0.3578582884812812
  0
VERTEX
  5
156
  8
CONTOUR
 10
26.86935256634253
 20
2.643873247161308
 30
0.0
 42
-0.4316373661635245
  0
VERTEX
  5
157
  8
CONTOUR
 10
25.43463000000001
 20
0.9984299999999973
 30
0.0
  0
VERTEX
  5
158
  8
CONTOUR
 10
25.43463470354593
 20
0.9984303873750076
 30
0.0
 42
-0.3967744361620218
  0
VERTEX
  5
159
  8
CONTOUR
 10
23.88394729912717
 20
2.349713618226977
 30
0.0
 42
0.357867640501756
  0
SEQEND
  5
6DF
  8
CONTOUR
  0
POLYLINE
  5
7F
  8
CONTOUR
 66
     1
 10
0.0
 20
0.0
 30
0.0
 70
     1
  0
VERTEX
  5
15A
  8
CONTOUR
 10
26.13890714927523
 20
12.55821728374297
 30
0.0
 42
0.3999276334009313
  0
VERTEX
  5
15B
  8
CONTOUR
 10
28.0735506548852
 20
11.82565660272009
 30
0.0
  0
VERTEX
  5
15C
  8
CONTOUR
 10
28.07355
 20
11.82564999999999
 30
0.0
 42
0.4287312762188888
  0
VERTEX
  5
15D
  8
CONTOUR
 10
28.84288894557539
 20
13.85788180963874
 30
0.0
 42
0.1703721904070013
  0
VERTEX
  5
15E
  8
CONTOUR
 10
13.85787841258371
 20
28.84288632686029
 30
0.0
 42
0.4287312762188887
  0
VERTEX
  5
15F
  8
CONTOUR
 10
11.82565704918336
 20
28.07355680982377
 30
0.0
  0
VERTEX
  5
160
  8
CONTOUR
 10
11.82565
 20
28.07355
 30
0.0
 42
0.3999276334009312
  0
VERTEX
  5
161
  8
CONTOUR
 10
12.55821728374297
 20
26.13890714927523
 30
0.0
 42
-0.1703802723744867
  0
SEQEND
  5
6E0
  8
CONTOUR
  0
POLYLINE
  5
81
  8
REFERENCE_POINTS
 66
     1
 10
0.0
 20
0.0
 30
0.0
  0
VERTEX
  5
162
  8
REFERENCE_POINTS
 10
-1.228000000000002
 20
-0.0000000000000018
 30
0.0
  0
VERTEX
  5
163
  8
REFERENCE_POINTS
 10
1.228000000000002
 20
-0.0000000000000018
 30
0.0
  0
SEQEND
  5
6E1
  8
REFERENCE_POINTS
  0
POLYLINE
  5
82
  8
REFERENCE_POINTS
 66
     1
 10
0.0
 20
0.0
 30
0.0
  0
VERTEX
  5
164
  8
REFERENCE_POINTS
 10
0.0000000000000071
 20
-1.227999999999996
 30
0.0
  0
VERTEX
  5
165
  8
REFERENCE_POINTS
 10
0.0000000000000071
 20
1.228000000000007
 30
0.0
  0
SEQEND
  5
6E2
  8
REFERENCE_POINTS
  0
POLYLINE
  5
83
  8
REFERENCE_POINTS
 66
     1
 10
0.0
 20
0.0
 30
0.0
  0
VERTEX
  5
166
  8
REFERENCE_POINTS
 10
-1.228000000000002
 20
-0.0000000000000018
 30
0.0
  0
VERTEX
  5
167
  8
REFERENCE_POINTS
 10
1.228000000000002
 20
-0.0000000000000018
 30
0.0
  0
SEQEND
  5
6E3
  8
REFERENCE_POINTS
  0
POLYLINE
  5
84
  8
REFERENCE_POINTS
 66
     1
 10
0.0
 20
0.0
 30
0.0
  0
VERTEX
  5
168
  8
REFERENCE_POINTS
 10
0.0000000000000071
 20
-1.227999999999996
 30
0.0
  0
VERTEX
  5
169
  8
REFERENCE_POINTS
 10
0.0000000000000071
 20
1.228000000000007
 30
0.0
  0
SEQEND
  5
6E4
  8
REFERENCE_POINTS
  0
POLYLINE
  5
85
  8
REFERENCE_POINTS
 66
     1
 10
0.0
 20
0.0
 30
0.0
  0
VERTEX
  5
16A
  8
REFERENCE_POINTS
 10
-1.228000000000002
 20
-0.0000000000000018
 30
0.0
  0
VERTEX
  5
16B
  8
REFERENCE_POINTS
 10
1.228000000000002
 20
-0.0000000000000018
 30
0.0
  0
SEQEND
  5
6E5
  8
REFERENCE_POINTS
  0
POLYLINE
  5
86
  8
REFERENCE_POINTS
 66
     1
 10
0.0
 20
0.0
 30
0.0
  0
VERTEX
  5
16C
  8
REFERENCE_POINTS
 10
0.0000000000000071
 20
-1.227999999999996
 30
0.0
  0
VERTEX
  5
16D
  8
REFERENCE_POINTS
 10
0.0000000000000071
 20
1.228000000000007
 30
0.0
  0
SEQEND
  5
6E6
  8
REFERENCE_POINTS
  0
POLYLINE
  5
87
  8
REFERENCE_POINTS
 66
     1
 10
0.0
 20
0.0
 30
0.0
  0
VERTEX
  5
16E
  8
REFERENCE_POINTS
 10
-1.228000000000002
 20
-0.0000000000000018
 30
0.0
  0
VERTEX
  5
16F
  8
REFERENCE_POINTS
 10
1.228000000000002
 20
-0.0000000000000018
 30
0.0
  0
SEQEND
  5
6E7
  8
REFERENCE_POINTS
  0
POLYLINE
  5
88
  8
REFERENCE_POINTS
 66
     1
 10
0.0
 20
0.0
 30
0.0
  0
VERTEX
  5
170
  8
REFERENCE_POINTS
 10
0.0000000000000071
 20
-1.227999999999996
 30
0.0
  0
VERTEX
  5
171
  8
REFERENCE_POINTS
 10
0.0000000000000071
 20
1.228000000000007
 30
0.0
  0
SEQEND
  5
6E8
  8
REFERENCE_POINTS
  0
POLYLINE
  5
89
  8
REFERENCE_POINTS
 66
     1
 10
0.0
 20
0.0
 30
0.0
  0
VERTEX
  5
172
  8
REFERENCE_POINTS
 10
-1.228000000000002
 20
-0.0000000000000018
 30
0.0
  0
VERTEX
  5
173
  8
REFERENCE_POINTS
 10
1.228000000000002
 20
-0.0000000000000018
 30
0.0
  0
SEQEND
  5
6E9
  8
REFERENCE_POINTS
  0
POLYLINE
  5
8A
  8
REFERENCE_POINTS
 66
     1
 10
0.0
 20
0.0
 30
0.0
  0
VERTEX
  5
174
  8
REFERENCE_POINTS
 10
0.0000000000000071
 20
-1.227999999999996
 30
0.0
  0
VERTEX
  5
175
  8
REFERENCE_POINTS
 10
0.0000000000000071
 20
1.228000000000007
 30
0.0
  0
SEQEND
  5
6EA
  8
REFERENCE_POINTS
  0
POLYLINE
  5
8B
  8
REFERENCE_POINTS
 66
     1
 10
0.0
 20
0.0
 30
0.0
  0
VERTEX
  5
176
  8
REFERENCE_POINTS
 10
-1.228000000000002
 20
-0.0000000000000018
 30
0.0
  0
VERTEX
  5
177
  8
REFERENCE_POINTS
 10
1.228000000000002
 20
-0.0000000000000018
 30
0.0
  0
SEQEND
  5
6EB
  8
REFERENCE_POINTS
  0
POLYLINE
  5
8C
  8
REFERENCE_POINTS
 66
     1
 10
0.0
 20
0.0
 30
0.0
  0
VERTEX
  5
178
  8
REFERENCE_POINTS
 10
0.0000000000000071
 20
-1.227999999999996
 30
0.0
  0
VERTEX
  5
179
  8
REFERENCE_POINTS
 10
0.0000000000000071
 20
1.228000000000007
 30
0.0
  0
SEQEND
  5
6EC
  8
REFERENCE_POINTS
  0
POLYLINE
  5
8D
  8
REFERENCE_POINTS
 66
     1
 10
0.0
 20
0.0
 30
0.0
  0
VERTEX
  5
17A
  8
REFERENCE_POINTS
 10
-1.228000000000002
 20
-0.0000000000000018
 30
0.0
  0
VERTEX
  5
17B
  8
REFERENCE_POINTS
 10
1.228000000000002
 20
-0.0000000000000018
 30
0.0
  0
SEQEND
  5
6ED
  8
REFERENCE_POINTS
  0
POLYLINE
  5
8E
  8
REFERENCE_POINTS
 66
     1
 10
0.0
 20
0.0
 30
0.0
  0
VERTEX
  5
17C
  8
REFERENCE_POINTS
 10
0.0000000000000071
 20
-1.227999999999996
 30
0.0
  0
VERTEX
  5
17D
  8
REFERENCE_POINTS
 10
0.0000000000000071
 20
1.228000000000007
 30
0.0
  0
SEQEND
  5
6EE
  8
REFERENCE_POINTS
  0
POLYLINE
  5
8F
  8
REFERENCE_POINTS
 66
     1
 10
0.0
 20
0.0
 30
0.0
  0
VERTEX
  5
17E
  8
REFERENCE_POINTS
 10
-1.228000000000002
 20
-0.0000000000000018
 30
0.0
  0
VERTEX
  5
17F
  8
REFERENCE_POINTS
 10
1.228000000000002
 20
-0.0000000000000018
 30
0.0
  0
SEQEND
  5
6EF
  8
REFERENCE_POINTS
  0
POLYLINE
  5
90
  8
REFERENCE_POINTS
 66
     1
 10
0.0
 20
0.0
 30
0.0
  0
VERTEX
  5
180
  8
REFERENCE_POINTS
 10
0.0000000000000071
 20
-1.227999999999996
 30
0.0
  0
VERTEX
  5
181
  8
REFERENCE_POINTS
 10
0.0000000000000071
 20
1.228000000000007
 30
0.0
  0
SEQEND
  5
6F0
  8
REFERENCE_POINTS
  0
POLYLINE
  5
91
  8
REFERENCE_POINTS
 66
     1
 10
0.0
 20
0.0
 30
0.0
  0
VERTEX
  5
182
  8
REFERENCE_POINTS
 10
-1.228000000000002
 20
-0.0000000000000018
 30
0.0
  0
VERTEX
  5
183
  8
REFERENCE_POINTS
 10
1.228000000000002
 20
-0.0000000000000018
 30
0.0
  0
SEQEND
  5
6F1
  8
REFERENCE_POINTS
  0
POLYLINE
  5
92
  8
REFERENCE_POINTS
 66
     1
 10
0.0
 20
0.0
 30
0.0
  0
VERTEX
  5
184
  8
REFERENCE_POINTS
 10
0.0000000000000071
 20
-1.227999999999996
 30
0.0
  0
VERTEX
  5
185
  8
REFERENCE_POINTS
 10
0.0000000000000071
 20
1.228000000000007
 30
0.0
  0
SEQEND
  5
6F2
  8
REFERENCE_POINTS
  0
POLYLINE
  5
93
  8
REFERENCE_POINTS
 66
     1
 10
0.0
 20
0.0
 30
0.0
  0
VERTEX
  5
186
  8
REFERENCE_POINTS
 10
-1.228000000000002
 20
-0.0000000000000018
 30
0.0
  0
VERTEX
  5
187
  8
REFERENCE_POINTS
 10
1.228000000000002
 20
-0.0000000000000018
 30
0.0
  0
SEQEND
  5
6F3
  8
REFERENCE_POINTS
  0
POLYLINE
  5
94
  8
REFERENCE_POINTS
 66
     1
 10
0.0
 20
0.0
 30
0.0
  0
VERTEX
  5
188
  8
REFERENCE_POINTS
 10
0.0000000000000071
 20
-1.227999999999996
 30
0.0
  0
VERTEX
  5
189
  8
REFERENCE_POINTS
 10
0.0000000000000071
 20
1.228000000000007
 30
0.0
  0
SEQEND
  5
6F4
  8
REFERENCE_POINTS
  0
POLYLINE
  5
95
  8
REFERENCE_POINTS
 66
     1
 10
0.0
 20
0.0
 30
0.0
  0
VERTEX
  5
18A
  8
REFERENCE_POINTS
 10
-1.228000000000002
 20
-0.0000000000000018
 30
0.0
  0
VERTEX
  5
18B
  8
REFERENCE_POINTS
 10
1.228000000000002
 20
-0.0000000000000018
 30
0.0
  0
SEQEND
  5
6F5
  8
REFERENCE_POINTS
  0
POLYLINE
  5
96
  8
REFERENCE_POINTS
 66
     1
 10
0.0
 20
0.0
 30
0.0
  0
VERTEX
  5
18C
  8
REFERENCE_POINTS
 10
0.0000000000000071
 20
-1.227999999999996
 30
0.0
  0
VERTEX
  5
18D
  8
REFERENCE_POINTS
 10
0.0000000000000071
 20
1.228000000000007
 30
0.0
  0
SEQEND
  5
6F6
  8
REFERENCE_POINTS
  0
POLYLINE
  5
97
  8
REFERENCE_POINTS
 66
     1
 10
0.0
 20
0.0
 30
0.0
  0
VERTEX
  5
18E
  8
REFERENCE_POINTS
 10
-1.228000000000002
 20
-0.0000000000000018
 30
0.0
  0
VERTEX
  5
18F
  8
REFERENCE_POINTS
 10
1.228000000000002
 20
-0.0000000000000018
 30
0.0
  0
SEQEND
  5
6F7
  8
REFERENCE_POINTS
  0
POLYLINE
  5
98
  8
REFERENCE_POINTS
 66
     1
 10
0.0
 20
0.0
 30
0.0
  0
VERTEX
  5
190
  8
REFERENCE_POINTS
 10
0.0000000000000071
 20
-1.227999999999996
 30
0.0
  0
VERTEX
  5
191
  8
REFERENCE_POINTS
 10
0.0000000000000071
 20
1.228000000000007
 30
0.0
  0
SEQEND
  5
6F8
  8
REFERENCE_POINTS
  0
POLYLINE
  5
99
  8
REFERENCE_POINTS
 66
     1
 10
0.0
 20
0.0
 30
0.0
  0
VERTEX
  5
192
  8
REFERENCE_POINTS
 10
-1.228000000000002
 20
-0.0000000000000018
 30
0.0
  0
VERTEX
  5
193
  8
REFERENCE_POINTS
 10
1.228000000000002
 20
-0.0000000000000018
 30
0.0
  0
SEQEND
  5
6F9
  8
REFERENCE_POINTS
  0
POLYLINE
  5
9A
  8
REFERENCE_POINTS
 66
     1
 10
0.0
 20
0.0
 30
0.0
  0
VERTEX
  5
194
  8
REFERENCE_POINTS
 10
0.0000000000000071
 20
-1.227999999999996
 30
0.0
  0
VERTEX
  5
195
  8
REFERENCE_POINTS
 10
0.0000000000000071
 20
1.228000000000007
 30
0.0
  0
SEQEND
  5
6FA
  8
REFERENCE_POINTS
  0
POLYLINE
  5
9B
  8
REFERENCE_POINTS
 66
     1
 10
0.0
 20
0.0
 30
0.0
  0
VERTEX
  5
196
  8
REFERENCE_POINTS
 10
-1.228000000000002
 20
-0.0000000000000018
 30
0.0
  0
VERTEX
  5
197
  8
REFERENCE_POINTS
 10
1.228000000000002
 20
-0.0000000000000018
 30
0.0
  0
SEQEND
  5
6FB
  8
REFERENCE_POINTS
  0
POLYLINE
  5
9C
  8
REFERENCE_POINTS
 66
     1
 10
0.0
 20
0.0
 30
0.0
  0
VERTEX
  5
198
  8
REFERENCE_POINTS
 10
0.0000000000000071
 20
-1.227999999999996
 30
0.0
  0
VERTEX
  5
199
  8
REFERENCE_POINTS
 10
0.0000000000000071
 20
1.228000000000007
 30
0.0
  0
SEQEND
  5
6FC
  8
REFERENCE_POINTS
  0
POLYLINE
  5
9D
  8
REFERENCE_POINTS
 66
     1
 10
0.0
 20
0.0
 30
0.0
  0
VERTEX
  5
19A
  8
REFERENCE_POINTS
 10
-1.228000000000002
 20
-0.0000000000000018
 30
0.0
  0
VERTEX
  5
19B
  8
REFERENCE_POINTS
 10
1.228000000000002
 20
-0.0000000000000018
 30
0.0
  0
SEQEND
  5
6FD
  8
REFERENCE_POINTS
  0
POLYLINE
  5
9E
  8
REFERENCE_POINTS
 66
     1
 10
0.0
 20
0.0
 30
0.0
  0
VERTEX
  5
19C
  8
REFERENCE_POINTS
 10
0.0000000000000071
 20
-1.227999999999996
 30
0.0
  0
VERTEX
  5
19D
  8
REFERENCE_POINTS
 10
0.0000000000000071
 20
1.228000000000007
 30
0.0
  0
SEQEND
  5
6FE
  8
REFERENCE_POINTS
  0
POLYLINE
  5
9F
  8
REFERENCE_POINTS
 66
     1
 10
0.0
 20
0.0
 30
0.0
  0
VERTEX
  5
19E
  8
REFERENCE_POINTS
 10
-1.228000000000002
 20
-0.0000000000000018
 30
0.0
  0
VERTEX
  5
19F
  8
REFERENCE_POINTS
 10
1.228000000000002
 20
-0.0000000000000018
 30
0.0
  0
SEQEND
  5
6FF
  8
REFERENCE_POINTS
  0
POLYLINE
  5
A0
  8
REFERENCE_POINTS
 66
     1
 10
0.0
 20
0.0
 30
0.0
  0
VERTEX
  5
1A0
  8
REFERENCE_POINTS
 10
0.0000000000000071
 20
-1.227999999999996
 30
0.0
  0
VERTEX
  5
1A1
  8
REFERENCE_POINTS
 10
0.0000000000000071
 20
1.228000000000007
 30
0.0
  0
SEQEND
  5
700
  8
REFERENCE_POINTS
  0
POLYLINE
  5
A1
  8
REFERENCE_POINTS
 66
     1
 10
0.0
 20
0.0
 30
0.0
  0
VERTEX
  5
1A2
  8
REFERENCE_POINTS
 10
-1.228000000000002
 20
-0.0000000000000018
 30
0.0
  0
VERTEX
  5
1A3
  8
REFERENCE_POINTS
 10
1.228000000000002
 20
-0.0000000000000018
 30
0.0
  0
SEQEND
  5
701
  8
REFERENCE_POINTS
  0
POLYLINE
  5
A2
  8
REFERENCE_POINTS
 66
     1
 10
0.0
 20
0.0
 30
0.0
  0
VERTEX
  5
1A4
  8
REFERENCE_POINTS
 10
0.0000000000000071
 20
-1.227999999999996
 30
0.0
  0
VERTEX
  5
1A5
  8
REFERENCE_POINTS
 10
0.0000000000000071
 20
1.228000000000007
 30
0.0
  0
SEQEND
  5
702
  8
REFERENCE_POINTS
  0
POLYLINE
  5
A3
  8
REFERENCE_POINTS
 66
     1
 10
0.0
 20
0.0
 30
0.0
  0
VERTEX
  5
1A6
  8
REFERENCE_POINTS
 10
-1.228000000000002
 20
-0.0000000000000018
 30
0.0
  0
VERTEX
  5
1A7
  8
REFERENCE_POINTS
 10
1.228000000000002
 20
-0.0000000000000018
 30
0.0
  0
SEQEND
  5
703
  8
REFERENCE_POINTS
  0
POLYLINE
  5
A4
  8
REFERENCE_POINTS
 66
     1
 10
0.0
 20
0.0
 30
0.0
  0
VERTEX
  5
1A8
  8
REFERENCE_POINTS
 10
0.0000000000000071
 20
-1.227999999999996
 30
0.0
  0
VERTEX
  5
1A9
  8
REFERENCE_POINTS
 10
0.0000000000000071
 20
1.228000000000007
 30
0.0
  0
SEQEND
  5
704
  8
REFERENCE_POINTS
  0
POLYLINE
  5
A5
  8
REFERENCE_POINTS
 66
     1
 10
0.0
 20
0.0
 30
0.0
 70
     1
  0
VERTEX
  5
1AA
  8
REFERENCE_POINTS
 10
0.0
 20
40.0
 30
0.0
 42
0.4142135623730951
  0
VERTEX
  5
1AB
  8
REFERENCE_POINTS
 10
-40.0
 20
0.0
 30
0.0
 42
0.4142135623730951
  0
VERTEX
  5
1AC
  8
REFERENCE_POINTS
 10
0.0
 20
-40.0
 30
0.0
 42
0.4142135623730951
  0
VERTEX
  5
1AD
  8
REFERENCE_POINTS
 10
40.0
 20
0.0
 30
0.0
 42
0.4142135623730951
  0
SEQEND
  5
705
  8
REFERENCE_POINTS
  0
POLYLINE
  5
A6
  8
REFERENCE_POINTS
 66
     1
 10
0.0
 20
0.0
 30
0.0
 70
     1
  0
VERTEX
  5
1AE
  8
REFERENCE_POINTS
 10
-0.0000000000000001
 20
35.9
 30
0.0
 42
0.4142135623730949
  0
VERTEX
  5
1AF
  8
REFERENCE_POINTS
 10
-35.9
 20
0.0000000000000001
 30
0.0
 42
0.4142135623730949
  0
VERTEX
  5
1B0
  8
REFERENCE_POINTS
 10
0.0000000000000001
 20
-35.9
 30
0.0
 42
0.4142135623730949
  0
VERTEX
  5
1B1
  8
REFERENCE_POINTS
 10
35.9
 20
-0.0000000000000001
 30
0.0
 42
0.4142135623730949
  0
SEQEND
  5
706
  8
REFERENCE_POINTS
  0
POLYLINE
  5
A7
  8
REFERENCE_POINTS
 66
     1
 10
0.0
 20
0.0
 30
0.0
 70
     1
  0
VERTEX
  5
1B2
  8
REFERENCE_POINTS
 10
-37.89802106810636
 20
-0.2499881237462112
 30
0.0
  0
VERTEX
  5
1B3
  8
REFERENCE_POINTS
 10
-37.87965227817777
 20
-1.218918297010597
 30
0.0
  0
VERTEX
  5
1B4
  8
REFERENCE_POINTS
 10
-37.83718556570739
 20
-2.181769809197423
 30
0.0
  0
VERTEX
  5
1B5
  8
REFERENCE_POINTS
 10
-37.77091156424802
 20
-3.13825200438904
 30
0.0
  0
VERTEX
  5
1B6
  8
REFERENCE_POINTS
 10
-37.68112090735247
 20
-4.088074226667803
 30
0.0
  0
VERTEX
  5
1B7
  8
REFERENCE_POINTS
 10
-37.56810422857355
 20
-5.030945820116064
 30
0.0
  0
VERTEX
  5
1B8
  8
REFERENCE_POINTS
 10
-37.43215216146405
 20
-5.966576128816175
 30
0.0
  0
VERTEX
  5
1B9
  8
REFERENCE_POINTS
 10
-37.27355533957677
 20
-6.894674496850492
 30
0.0
  0
VERTEX
  5
1BA
  8
REFERENCE_POINTS
 10
-37.09260439646453
 20
-7.814950268301366
 30
0.0
  0
VERTEX
  5
1BB
  8
REFERENCE_POINTS
 10
-36.88958996568012
 20
-8.72711278725115
 30
0.0
  0
VERTEX
  5
1BC
  8
REFERENCE_POINTS
 10
-36.66480268077636
 20
-9.630871397782197
 30
0.0
  0
VERTEX
  5
1BD
  8
REFERENCE_POINTS
 10
-36.41853317530603
 20
-10.52593544397686
 30
0.0
  0
VERTEX
  5
1BE
  8
REFERENCE_POINTS
 10
-36.15107208282195
 20
-11.4120142699175
 30
0.0
  0
VERTEX
  5
1BF
  8
REFERENCE_POINTS
 10
-35.86271003687691
 20
-12.28881721968645
 30
0.0
  0
VERTEX
  5
1C0
  8
REFERENCE_POINTS
 10
-35.55373767102373
 20
-13.15605363736608
 30
0.0
  0
VERTEX
  5
1C1
  8
REFERENCE_POINTS
 10
-35.2244456188152
 20
-14.01343286703874
 30
0.0
  0
VERTEX
  5
1C2
  8
REFERENCE_POINTS
 10
-34.87512451380412
 20
-14.86066425278679
 30
0.0
  0
VERTEX
  5
1C3
  8
REFERENCE_POINTS
 10
-34.50606498954332
 20
-15.69745713869256
 30
0.0
  0
VERTEX
  5
1C4
  8
REFERENCE_POINTS
 10
-34.11755767958557
 20
-16.52352086883843
 30
0.0
  0
VERTEX
  5
1C5
  8
REFERENCE_POINTS
 10
-33.7098932174837
 20
-17.33856478730673
 30
0.0
  0
VERTEX
  5
1C6
  8
REFERENCE_POINTS
 10
-33.28336223679048
 20
-18.14229823817983
 30
0.0
  0
VERTEX
  5
1C7
  8
REFERENCE_POINTS
 10
-32.83825537105875
 20
-18.93443056554008
 30
0.0
  0
VERTEX
  5
1C8
  8
REFERENCE_POINTS
 10
-32.37486325384128
 20
-19.71467111346982
 30
0.0
  0
VERTEX
  5
1C9
  8
REFERENCE_POINTS
 10
-31.89347651869091
 20
-20.48272922605142
 30
0.0
  0
VERTEX
  5
1CA
  8
REFERENCE_POINTS
 10
-31.39438579916041
 20
-21.23831424736723
 30
0.0
  0
VERTEX
  5
1CB
  8
REFERENCE_POINTS
 10
-30.8778817288026
 20
-21.9811355214996
 30
0.0
  0
VERTEX
  5
1CC
  8
REFERENCE_POINTS
 10
-30.34425494117028
 20
-22.71090239253087
 30
0.0
  0
VERTEX
  5
1CD
  8
REFERENCE_POINTS
 10
-29.79379606981626
 20
-23.42732420454341
 30
0.0
  0
VERTEX
  5
1CE
  8
REFERENCE_POINTS
 10
-29.22679574829333
 20
-24.13011030161957
 30
0.0
  0
VERTEX
  5
1CF
  8
REFERENCE_POINTS
 10
-28.64354461015431
 20
-24.8189700278417
 30
0.0
  0
VERTEX
  5
1D0
  8
REFERENCE_POINTS
 10
-28.04433328895198
 20
-25.49361272729216
 30
0.0
  0
VERTEX
  5
1D1
  8
REFERENCE_POINTS
 10
-27.42945241823917
 20
-26.15374774405329
 30
0.0
  0
VERTEX
  5
1D2
  8
REFERENCE_POINTS
 10
-26.79919263156866
 20
-26.79908442220746
 30
0.0
  0
VERTEX
  5
1D3
  8
REFERENCE_POINTS
 10
-26.15384456249327
 20
-27.429332105837
 30
0.0
  0
VERTEX
  5
1D4
  8
REFERENCE_POINTS
 10
-25.49369884456579
 20
-28.04420013902428
 30
0.0
  0
VERTEX
  5
1D5
  8
REFERENCE_POINTS
 10
-24.81904611133903
 20
-28.64339786585166
 30
0.0
  0
VERTEX
  5
1D6
  8
REFERENCE_POINTS
 10
-24.1301769963658
 20
-29.22663463040147
 30
0.0
  0
VERTEX
  5
1D7
  8
REFERENCE_POINTS
 10
-23.4273821331989
 20
-29.79361977675608
 30
0.0
  0
VERTEX
  5
1D8
  8
REFERENCE_POINTS
 10
-22.71095215539112
 20
-30.34406264899784
 30
0.0
  0
VERTEX
  5
1D9
  8
REFERENCE_POINTS
 10
-21.98117769649527
 20
-30.87767259120911
 30
0.0
  0
VERTEX
  5
1DA
  8
REFERENCE_POINTS
 10
-21.23834939006415
 20
-31.39415894747222
 30
0.0
  0
VERTEX
  5
1DB
  8
REFERENCE_POINTS
 10
-20.48275786965058
 20
-31.89323106186954
 30
0.0
  0
VERTEX
  5
1DC
  8
REFERENCE_POINTS
 10
-19.71469376880735
 20
-32.37459827848343
 30
0.0
  0
VERTEX
  5
1DD
  8
REFERENCE_POINTS
 10
-18.93444772108727
 20
-32.83796994139623
 30
0.0
  0
VERTEX
  5
1DE
  8
REFERENCE_POINTS
 10
-18.14231036004313
 20
-33.28305539469029
 30
0.0
  0
VERTEX
  5
1DF
  8
REFERENCE_POINTS
 10
-17.33857231922775
 20
-33.70956398244798
 30
0.0
  0
VERTEX
  5
1E0
  8
REFERENCE_POINTS
 10
-16.52352423219392
 20
-34.11720504875164
 30
0.0
  0
VERTEX
  5
1E1
  8
REFERENCE_POINTS
 10
-15.69745673249446
 20
-34.50568793768363
 30
0.0
  0
VERTEX
  5
1E2
  8
REFERENCE_POINTS
 10
-14.86066045368215
 20
-34.87472199332629
 30
0.0
  0
VERTEX
  5
1E3
  8
REFERENCE_POINTS
 10
-14.01342602930981
 20
-35.22401655976198
 30
0.0
  0
VERTEX
  5
1E4
  8
REFERENCE_POINTS
 10
-13.15604409293024
 20
-35.55328098107307
 30
0.0
  0
VERTEX
  5
1E5
  8
REFERENCE_POINTS
 10
-12.28880527809624
 20
-35.86222460134189
 30
0.0
  0
VERTEX
  5
1E6
  8
REFERENCE_POINTS
 10
-11.41200021836062
 20
-36.15055676465079
 30
0.0
  0
VERTEX
  5
1E7
  8
REFERENCE_POINTS
 10
-10.52591954727617
 20
-36.41798681508214
 30
0.0
  0
VERTEX
  5
1E8
  8
REFERENCE_POINTS
 10
-9.630853898395703
 20
-36.6642240967183
 30
0.0
  0
VERTEX
  5
1E9
  8
REFERENCE_POINTS
 10
-8.727093905272024
 20
-36.88897795364161
 30
0.0
  0
VERTEX
  5
1EA
  8
REFERENCE_POINTS
 10
-7.814930201457933
 20
-37.09195772993441
 30
0.0
  0
VERTEX
  5
1EB
  8
REFERENCE_POINTS
 10
-6.894653420506234
 20
-37.27287276967908
 30
0.0
  0
VERTEX
  5
1EC
  8
REFERENCE_POINTS
 10
-5.966554195969728
 20
-37.43143241695795
 30
0.0
  0
VERTEX
  5
1ED
  8
REFERENCE_POINTS
 10
-5.030923161401221
 20
-37.56734601585339
 30
0.0
  0
VERTEX
  5
1EE
  8
REFERENCE_POINTS
 10
-4.088050950353514
 20
-37.68032291044774
 30
0.0
  0
VERTEX
  5
1EF
  8
REFERENCE_POINTS
 10
-3.138228196379413
 20
-37.77007244482335
 30
0.0
  0
VERTEX
  5
1F0
  8
REFERENCE_POINTS
 10
-2.181745533031719
 20
-37.83630396306259
 30
0.0
  0
VERTEX
  5
1F1
  8
REFERENCE_POINTS
 10
-1.218893593863235
 20
-37.87872680924781
 30
0.0
  0
VERTEX
  5
1F2
  8
REFERENCE_POINTS
 10
-0.2499630124267669
 20
-37.89705032746136
 30
0.0
  0
VERTEX
  5
1F3
  8
REFERENCE_POINTS
 10
-0.25
 20
-37.9
 30
0.0
 42
0.4142135623730951
  0
VERTEX
  5
1F4
  8
REFERENCE_POINTS
 10
0.0
 20
-38.15
 30
0.0
 42
0.4142135623730951
  0
VERTEX
  5
1F5
  8
REFERENCE_POINTS
 10
0.25
 20
-37.9
 30
0.0
  0
VERTEX
  5
1F6
  8
REFERENCE_POINTS
 10
0.2499881237462657
 20
-37.8980210681092
 30
0.0
  0
VERTEX
  5
1F7
  8
REFERENCE_POINTS
 10
1.218918295253368
 20
-37.87965227823578
 30
0.0
  0
VERTEX
  5
1F8
  8
REFERENCE_POINTS
 10
2.181769805705563
 20
-37.83718556590643
 30
0.0
  0
VERTEX
  5
1F9
  8
REFERENCE_POINTS
 10
3.138251999186799
 20
-37.77091156467107
 30
0.0
  0
VERTEX
  5
1FA
  8
REFERENCE_POINTS
 10
4.088074219781022
 20
-37.68112090807961
 30
0.0
  0
VERTEX
  5
1FB
  8
REFERENCE_POINTS
 10
5.030945811572182
 20
-37.568104229682
 30
0.0
  0
VERTEX
  5
1FC
  8
REFERENCE_POINTS
 10
5.966576118644223
 20
-37.43215216302814
 30
0.0
  0
VERTEX
  5
1FD
  8
REFERENCE_POINTS
 10
6.894674485081096
 20
-37.27355534166794
 30
0.0
  0
VERTEX
  5
1FE
  8
REFERENCE_POINTS
 10
7.814950254966748
 20
-37.09260439915136
 30
0.0
  0
VERTEX
  5
1FF
  8
REFERENCE_POINTS
 10
8.727112772385125
 20
-36.88958996902829
 30
0.0
  0
VERTEX
  5
200
  8
REFERENCE_POINTS
 10
9.630871381420173
 20
-36.66480268484867
 30
0.0
  0
VERTEX
  5
201
  8
REFERENCE_POINTS
 10
10.52593542615584
 20
-36.41853318016241
 30
0.0
  0
VERTEX
  5
202
  8
REFERENCE_POINTS
 10
11.41201425067608
 20
-36.15107208851944
 30
0.0
  0
VERTEX
  5
203
  8
REFERENCE_POINTS
 10
12.28881719906483
 20
-35.86271004346968
 30
0.0
  0
VERTEX
  5
204
  8
REFERENCE_POINTS
 10
13.15605361540605
 20
-35.55373767856305
 30
0.0
  0
VERTEX
  5
205
  8
REFERENCE_POINTS
 10
14.01343284378367
 20
-35.22444562734948
 30
0.0
  0
VERTEX
  5
206
  8
REFERENCE_POINTS
 10
14.86066422828166
 20
-34.87512452337889
 30
0.0
  0
VERTEX
  5
207
  8
REFERENCE_POINTS
 10
15.69745711298395
 20
-34.50606500020119
 30
0.0
  0
VERTEX
  5
208
  8
REFERENCE_POINTS
 10
16.52352084197449
 20
-34.11755769136631
 30
0.0
  0
VERTEX
  5
209
  8
REFERENCE_POINTS
 10
17.33856475933723
 20
-33.70989323042419
 30
0.0
  0
VERTEX
  5
20A
  8
REFERENCE_POINTS
 10
18.14229820915612
 20
-33.28336225092472
 30
0.0
  0
VERTEX
  5
20B
  8
REFERENCE_POINTS
 10
18.9344305355151
 20
-32.83825538641783
 30
0.0
  0
VERTEX
  5
20C
  8
REFERENCE_POINTS
 10
19.71467108249813
 20
-32.37486327045347
 30
0.0
  0
VERTEX
  5
20D
  8
REFERENCE_POINTS
 10
20.48272919418914
 20
-31.89347653658153
 30
0.0
  0
VERTEX
  5
20E
  8
REFERENCE_POINTS
 10
21.2383142146721
 20
-31.39438581835195
 30
0.0
  0
VERTEX
  5
20F
  8
REFERENCE_POINTS
 10
21.98113548803094
 20
-30.87788174931464
 30
0.0
  0
VERTEX
  5
210
  8
REFERENCE_POINTS
 10
22.71090235834961
 20
-30.34425496301953
 30
0.0
  0
VERTEX
  5
211
  8
REFERENCE_POINTS
 10
23.42732416971206
 20
-29.79379609301654
 30
0.0
  0
VERTEX
  5
212
  8
REFERENCE_POINTS
 10
24.13011026620224
 20
-29.2267957728556
 30
0.0
  0
VERTEX
  5
213
  8
REFERENCE_POINTS
 10
24.81896999190409
 20
-28.64354463608662
 30
0.0
  0
VERTEX
  5
214
  8
REFERENCE_POINTS
 10
25.49361269090156
 20
-28.04433331625952
 30
0.0
  0
VERTEX
  5
215
  8
REFERENCE_POINTS
 10
26.15374770727861
 20
-27.42945244692424
 30
0.0
  0
VERTEX
  5
216
  8
REFERENCE_POINTS
 10
26.79908438511917
 20
-26.79919266163068
 30
0.0
  0
VERTEX
  5
217
  8
REFERENCE_POINTS
 10
27.4293320685072
 20
-26.15384459392878
 30
0.0
  0
VERTEX
  5
218
  8
REFERENCE_POINTS
 10
28.04420010152664
 20
-25.49369887736846
 30
0.0
  0
VERTEX
  5
219
  8
REFERENCE_POINTS
 10
28.64339782826143
 20
-24.81904614549963
 30
0.0
  0
VERTEX
  5
21A
  8
REFERENCE_POINTS
 10
29.22663459279554
 20
-24.13017703187222
 30
0.0
  0
VERTEX
  5
21B
  8
REFERENCE_POINTS
 10
29.7936197392129
 20
-23.42738217003616
 30
0.0
  0
VERTEX
  5
21C
  8
REFERENCE_POINTS
 10
30.34406261159747
 20
-22.71095219354136
 30
0.0
  0
VERTEX
  5
21D
  8
REFERENCE_POINTS
 10
30.87767255403318
 20
-21.98117773593774
 30
0.0
  0
VERTEX
  5
21E
  8
REFERENCE_POINTS
 10
31.39415891060399
 20
-21.23834943077524
 30
0.0
  0
VERTEX
  5
21F
  8
REFERENCE_POINTS
 10
31.89323102539384
 20
-20.48275791160376
 30
0.0
  0
VERTEX
  5
220
  8
REFERENCE_POINTS
 10
32.37459824248668
 20
-19.71469381197324
 30
0.0
  0
VERTEX
  5
221
  8
REFERENCE_POINTS
 10
32.83796990596647
 20
-18.9344477654336
 30
0.0
  0
VERTEX
  5
222
  8
REFERENCE_POINTS
 10
33.28305535991714
 20
-18.14231040553474
 30
0.0
  0
VERTEX
  5
223
  8
REFERENCE_POINTS
 10
33.70956394842265
 20
-17.33857236582661
 30
0.0
  0
VERTEX
  5
224
  8
REFERENCE_POINTS
 10
34.11720501556693
 20
-16.52352427985912
 30
0.0
  0
VERTEX
  5
225
  8
REFERENCE_POINTS
 10
34.50568790543394
 20
-15.6974567811822
 30
0.0
  0
VERTEX
  5
226
  8
REFERENCE_POINTS
 10
34.87472196210764
 20
-14.86066050334576
 30
0.0
  0
VERTEX
  5
227
  8
REFERENCE_POINTS
 10
35.22401652967196
 20
-14.01342607989972
 30
0.0
  0
VERTEX
  5
228
  8
REFERENCE_POINTS
 10
35.55328095221086
 20
-13.15604414439402
 30
0.0
  0
VERTEX
  5
229
  8
REFERENCE_POINTS
 10
35.86222457380826
 20
-12.28880533037857
 30
0.0
  0
VERTEX
  5
22A
  8
REFERENCE_POINTS
 10
36.15055673854814
 20
-11.4120002714033
 30
0.0
  0
VERTEX
  5
22B
  8
REFERENCE_POINTS
 10
36.41798679051443
 20
-10.52591960101812
 30
0.0
  0
VERTEX
  5
22C
  8
REFERENCE_POINTS
 10
36.66422407379108
 20
-9.630853952772961
 30
0.0
  0
VERTEX
  5
22D
  8
REFERENCE_POINTS
 10
36.88897793246204
 20
-8.727093960217742
 30
0.0
  0
VERTEX
  5
22E
  8
REFERENCE_POINTS
 10
37.09195771061125
 20
-7.814930256902387
 30
0.0
  0
VERTEX
  5
22F
  8
REFERENCE_POINTS
 10
37.27287275232268
 20
-6.894653476376818
 30
0.0
  0
VERTEX
  5
230
  8
REFERENCE_POINTS
 10
37.43143240168025
 20
-5.966554252190955
 30
0.0
  0
VERTEX
  5
231
  8
REFERENCE_POINTS
 10
37.56734600276792
 20
-5.030923217894722
 30
0.0
  0
VERTEX
  5
232
  8
REFERENCE_POINTS
 10
37.68032289966963
 20
-4.088051007038041
 30
0.0
  0
VERTEX
  5
233
  8
REFERENCE_POINTS
 10
37.77007243646935
 20
-3.138228253170833
 30
0.0
  0
VERTEX
  5
234
  8
REFERENCE_POINTS
 10
37.83630395725099
 20
-2.181745589843022
 30
0.0
  0
VERTEX
  5
235
  8
REFERENCE_POINTS
 10
37.87872680609853
 20
-1.218893650604529
 30
0.0
  0
VERTEX
  5
236
  8
REFERENCE_POINTS
 10
37.89705032709591
 20
-0.2499630690052769
 30
0.0
  0
VERTEX
  5
237
  8
REFERENCE_POINTS
 10
37.9
 20
-0.25
 30
0.0
 42
0.4142135623730951
  0
VERTEX
  5
238
  8
REFERENCE_POINTS
 10
38.15
 20
0.0
 30
0.0
 42
0.4142135623730951
  0
VERTEX
  5
239
  8
REFERENCE_POINTS
 10
37.9
 20
0.25
 30
0.0
  0
VERTEX
  5
23A
  8
REFERENCE_POINTS
 10
37.89705032746729
 20
0.2499630124268834
 30
0.0
  0
VERTEX
  5
23B
  8
REFERENCE_POINTS
 10
37.87872680925348
 20
1.218893593863346
 30
0.0
  0
VERTEX
  5
23C
  8
REFERENCE_POINTS
 10
37.836303963068
 20
2.181745533031823
 30
0.0
  0
VERTEX
  5
23D
  8
REFERENCE_POINTS
 10
37.7700724448285
 20
3.138228196379511
 30
0.0
  0
VERTEX
  5
23E
  8
REFERENCE_POINTS
 10
37.68032291045263
 20
4.088050950353606
 30
0.0
  0
VERTEX
  5
23F
  8
REFERENCE_POINTS
 10
37.56734601585804
 20
5.030923161401306
 30
0.0
  0
VERTEX
  5
240
  8
REFERENCE_POINTS
 10
37.43143241696237
 20
5.966554195969807
 30
0.0
  0
VERTEX
  5
241
  8
REFERENCE_POINTS
 10
37.27287276968328
 20
6.894653420506305
 30
0.0
  0
VERTEX
  5
242
  8
REFERENCE_POINTS
 10
37.09195772993839
 20
7.814930201457998
 30
0.0
  0
VERTEX
  5
243
  8
REFERENCE_POINTS
 10
36.88897795364537
 20
8.727093905272083
 30
0.0
  0
VERTEX
  5
244
  8
REFERENCE_POINTS
 10
36.66422409672187
 20
9.630853898395753
 30
0.0
  0
VERTEX
  5
245
  8
REFERENCE_POINTS
 10
36.41798681508552
 20
10.52591954727621
 30
0.0
  0
VERTEX
  5
246
  8
REFERENCE_POINTS
 10
36.15055676465398
 20
11.41200021836064
 30
0.0
  0
VERTEX
  5
247
  8
REFERENCE_POINTS
 10
35.8622246013449
 20
12.28880527809626
 30
0.0
  0
VERTEX
  5
248
  8
REFERENCE_POINTS
 10
35.55328098107591
 20
13.15604409293024
 30
0.0
  0
VERTEX
  5
249
  8
REFERENCE_POINTS
 10
35.22401655976466
 20
14.0134260293098
 30
0.0
  0
VERTEX
  5
24A
  8
REFERENCE_POINTS
 10
34.8747219933288
 20
14.86066045368213
 30
0.0
  0
VERTEX
  5
24B
  8
REFERENCE_POINTS
 10
34.50568793768598
 20
15.69745673249441
 30
0.0
  0
VERTEX
  5
24C
  8
REFERENCE_POINTS
 10
34.11720504875385
 20
16.52352423219386
 30
0.0
  0
VERTEX
  5
24D
  8
REFERENCE_POINTS
 10
33.70956398245005
 20
17.33857231922767
 30
0.0
  0
VERTEX
  5
24E
  8
REFERENCE_POINTS
 10
33.28305539469223
 20
18.14231036004303
 30
0.0
  0
VERTEX
  5
24F
  8
REFERENCE_POINTS
 10
32.83796994139803
 20
18.93444772108715
 30
0.0
  0
VERTEX
  5
250
  8
REFERENCE_POINTS
 10
32.37459827848511
 20
19.7146937688072
 30
0.0
  0
VERTEX
  5
251
  8
REFERENCE_POINTS
 10
31.89323106187111
 20
20.4827578696504
 30
0.0
  0
VERTEX
  5
252
  8
REFERENCE_POINTS
 10
31.39415894747368
 20
21.23834939006395
 30
0.0
  0
VERTEX
  5
253
  8
REFERENCE_POINTS
 10
30.87767259121046
 20
21.98117769649503
 30
0.0
  0
VERTEX
  5
254
  8
REFERENCE_POINTS
 10
30.34406264899909
 20
22.71095215539084
 30
0.0
  0
VERTEX
  5
255
  8
REFERENCE_POINTS
 10
29.79361977675723
 20
23.42738213319859
 30
0.0
  0
VERTEX
  5
256
  8
REFERENCE_POINTS
 10
29.22663463040253
 20
24.13017699636546
 30
0.0
  0
VERTEX
  5
257
  8
REFERENCE_POINTS
 10
28.64339786585263
 20
24.81904611133865
 30
0.0
  0
VERTEX
  5
258
  8
REFERENCE_POINTS
 10
28.04420013902517
 20
25.49369884456536
 30
0.0
  0
VERTEX
  5
259
  8
REFERENCE_POINTS
 10
27.42933210583782
 20
26.15384456249279
 30
0.0
  0
VERTEX
  5
25A
  8
REFERENCE_POINTS
 10
26.7990844222082
 20
26.79919263156814
 30
0.0
  0
VERTEX
  5
25B
  8
REFERENCE_POINTS
 10
26.15374774405396
 20
27.42945241823859
 30
0.0
  0
VERTEX
  5
25C
  8
REFERENCE_POINTS
 10
25.49361272729277
 20
28.04433328895135
 30
0.0
  0
VERTEX
  5
25D
  8
REFERENCE_POINTS
 10
24.81897002784225
 20
28.64354461015361
 30
0.0
  0
VERTEX
  5
25E
  8
REFERENCE_POINTS
 10
24.13011030162006
 20
29.22679574829258
 30
0.0
  0
VERTEX
  5
25F
  8
REFERENCE_POINTS
 10
23.42732420454385
 20
29.79379606981544
 30
0.0
  0
VERTEX
  5
260
  8
REFERENCE_POINTS
 10
22.71090239253126
 20
30.34425494116939
 30
0.0
  0
VERTEX
  5
261
  8
REFERENCE_POINTS
 10
21.98113552149994
 20
30.87788172880164
 30
0.0
  0
VERTEX
  5
262
  8
REFERENCE_POINTS
 10
21.23831424736753
 20
31.39438579915937
 30
0.0
  0
VERTEX
  5
263
  8
REFERENCE_POINTS
 10
20.48272922605169
 20
31.89347651868978
 30
0.0
  0
VERTEX
  5
264
  8
REFERENCE_POINTS
 10
19.71467111347005
 20
32.37486325384008
 30
0.0
  0
VERTEX
  5
265
  8
REFERENCE_POINTS
 10
18.93443056554027
 20
32.83825537105744
 30
0.0
  0
VERTEX
  5
266
  8
REFERENCE_POINTS
 10
18.14229823818
 20
33.28336223678909
 30
0.0
  0
VERTEX
  5
267
  8
REFERENCE_POINTS
 10
17.33856478730687
 20
33.7098932174822
 30
0.0
  0
VERTEX
  5
268
  8
REFERENCE_POINTS
 10
16.52352086883854
 20
34.11755767958397
 30
0.0
  0
VERTEX
  5
269
  8
REFERENCE_POINTS
 10
15.69745713869266
 20
34.50606498954161
 30
0.0
  0
VERTEX
  5
26A
  8
REFERENCE_POINTS
 10
14.86066425278686
 20
34.87512451380232
 30
0.0
  0
VERTEX
  5
26B
  8
REFERENCE_POINTS
 10
14.0134328670388
 20
35.22444561881328
 30
0.0
  0
VERTEX
  5
26C
  8
REFERENCE_POINTS
 10
13.15605363736612
 20
35.55373767102169
 30
0.0
  0
VERTEX
  5
26D
  8
REFERENCE_POINTS
 10
12.28881721968648
 20
35.86271003687474
 30
0.0
  0
VERTEX
  5
26E
  8
REFERENCE_POINTS
 10
11.41201426991751
 20
36.15107208281965
 30
0.0
  0
VERTEX
  5
26F
  8
REFERENCE_POINTS
 10
10.52593544397686
 20
36.4185331753036
 30
0.0
  0
VERTEX
  5
270
  8
REFERENCE_POINTS
 10
9.63087139778219
 20
36.66480268077379
 30
0.0
  0
VERTEX
  5
271
  8
REFERENCE_POINTS
 10
8.727112787251135
 20
36.88958996567742
 30
0.0
  0
VERTEX
  5
272
  8
REFERENCE_POINTS
 10
7.814950268301343
 20
37.09260439646167
 30
0.0
  0
VERTEX
  5
273
  8
REFERENCE_POINTS
 10
6.894674496850463
 20
37.27355533957375
 30
0.0
  0
VERTEX
  5
274
  8
REFERENCE_POINTS
 10
5.966576128816143
 20
37.43215216146086
 30
0.0
  0
VERTEX
  5
275
  8
REFERENCE_POINTS
 10
5.030945820116026
 20
37.5681042285702
 30
0.0
  0
VERTEX
  5
276
  8
REFERENCE_POINTS
 10
4.088074226667762
 20
37.68112090734896
 30
0.0
  0
VERTEX
  5
277
  8
REFERENCE_POINTS
 10
3.138252004388996
 20
37.77091156424432
 30
0.0
  0
VERTEX
  5
278
  8
REFERENCE_POINTS
 10
2.181769809197376
 20
37.83718556570351
 30
0.0
  0
VERTEX
  5
279
  8
REFERENCE_POINTS
 10
1.218918297010548
 20
37.87965227817371
 30
0.0
  0
VERTEX
  5
27A
  8
REFERENCE_POINTS
 10
0.2499881237461588
 20
37.8980210681021
 30
0.0
  0
VERTEX
  5
27B
  8
REFERENCE_POINTS
 10
0.25
 20
37.9
 30
0.0
 42
0.4142135623730951
  0
VERTEX
  5
27C
  8
REFERENCE_POINTS
 10
0.0
 20
38.15
 30
0.0
 42
0.4142135623730951
  0
VERTEX
  5
27D
  8
REFERENCE_POINTS
 10
-0.25
 20
37.9
 30
0.0
  0
VERTEX
  5
27E
  8
REFERENCE_POINTS
 10
-0.2499881237462103
 20
37.89802106810636
 30
0.0
  0
VERTEX
  5
27F
  8
REFERENCE_POINTS
 10
-1.218918297010597
 20
37.87965227817777
 30
0.0
  0
VERTEX
  5
280
  8
REFERENCE_POINTS
 10
-2.181769809197422
 20
37.83718556570739
 30
0.0
  0
VERTEX
  5
281
  8
REFERENCE_POINTS
 10
-3.138252004389039
 20
37.77091156424802
 30
0.0
  0
VERTEX
  5
282
  8
REFERENCE_POINTS
 10
-4.088074226667802
 20
37.68112090735247
 30
0.0
  0
VERTEX
  5
283
  8
REFERENCE_POINTS
 10
-5.030945820116062
 20
37.56810422857355
 30
0.0
  0
VERTEX
  5
284
  8
REFERENCE_POINTS
 10
-5.966576128816174
 20
37.43215216146405
 30
0.0
  0
VERTEX
  5
285
  8
REFERENCE_POINTS
 10
-6.89467449685049
 20
37.27355533957677
 30
0.0
  0
VERTEX
  5
286
  8
REFERENCE_POINTS
 10
-7.814950268301365
 20
37.09260439646453
 30
0.0
  0
VERTEX
  5
287
  8
REFERENCE_POINTS
 10
-8.727112787251148
 20
36.88958996568012
 30
0.0
  0
VERTEX
  5
288
  8
REFERENCE_POINTS
 10
-9.630871397782196
 20
36.66480268077636
 30
0.0
  0
VERTEX
  5
289
  8
REFERENCE_POINTS
 10
-10.52593544397686
 20
36.41853317530603
 30
0.0
  0
VERTEX
  5
28A
  8
REFERENCE_POINTS
 10
-11.41201426991749
 20
36.15107208282195
 30
0.0
  0
VERTEX
  5
28B
  8
REFERENCE_POINTS
 10
-12.28881721968645
 20
35.86271003687691
 30
0.0
  0
VERTEX
  5
28C
  8
REFERENCE_POINTS
 10
-13.15605363736608
 20
35.55373767102373
 30
0.0
  0
VERTEX
  5
28D
  8
REFERENCE_POINTS
 10
-14.01343286703874
 20
35.2244456188152
 30
0.0
  0
VERTEX
  5
28E
  8
REFERENCE_POINTS
 10
-14.86066425278679
 20
34.87512451380412
 30
0.0
  0
VERTEX
  5
28F
  8
REFERENCE_POINTS
 10
-15.69745713869256
 20
34.50606498954332
 30
0.0
  0
VERTEX
  5
290
  8
REFERENCE_POINTS
 10
-16.52352086883842
 20
34.11755767958557
 30
0.0
  0
VERTEX
  5
291
  8
REFERENCE_POINTS
 10
-17.33856478730673
 20
33.7098932174837
 30
0.0
  0
VERTEX
  5
292
  8
REFERENCE_POINTS
 10
-18.14229823817983
 20
33.28336223679048
 30
0.0
  0
VERTEX
  5
293
  8
REFERENCE_POINTS
 10
-18.93443056554008
 20
32.83825537105875
 30
0.0
  0
VERTEX
  5
294
  8
REFERENCE_POINTS
 10
-19.71467111346982
 20
32.37486325384128
 30
0.0
  0
VERTEX
  5
295
  8
REFERENCE_POINTS
 10
-20.48272922605142
 20
31.89347651869091
 30
0.0
  0
VERTEX
  5
296
  8
REFERENCE_POINTS
 10
-21.23831424736723
 20
31.39438579916041
 30
0.0
  0
VERTEX
  5
297
  8
REFERENCE_POINTS
 10
-21.9811355214996
 20
30.8778817288026
 30
0.0
  0
VERTEX
  5
298
  8
REFERENCE_POINTS
 10
-22.71090239253087
 20
30.34425494117028
 30
0.0
  0
VERTEX
  5
299
  8
REFERENCE_POINTS
 10
-23.42732420454341
 20
29.79379606981626
 30
0.0
  0
VERTEX
  5
29A
  8
REFERENCE_POINTS
 10
-24.13011030161957
 20
29.22679574829333
 30
0.0
  0
VERTEX
  5
29B
  8
REFERENCE_POINTS
 10
-24.8189700278417
 20
28.64354461015431
 30
0.0
  0
VERTEX
  5
29C
  8
REFERENCE_POINTS
 10
-25.49361272729216
 20
28.04433328895198
 30
0.0
  0
VERTEX
  5
29D
  8
REFERENCE_POINTS
 10
-26.15374774405329
 20
27.42945241823917
 30
0.0
  0
VERTEX
  5
29E
  8
REFERENCE_POINTS
 10
-26.79908442220746
 20
26.79919263156866
 30
0.0
  0
VERTEX
  5
29F
  8
REFERENCE_POINTS
 10
-27.429332105837
 20
26.15384456249327
 30
0.0
  0
VERTEX
  5
2A0
  8
REFERENCE_POINTS
 10
-28.04420013902428
 20
25.49369884456579
 30
0.0
  0
VERTEX
  5
2A1
  8
REFERENCE_POINTS
 10
-28.64339786585166
 20
24.81904611133903
 30
0.0
  0
VERTEX
  5
2A2
  8
REFERENCE_POINTS
 10
-29.22663463040147
 20
24.1301769963658
 30
0.0
  0
VERTEX
  5
2A3
  8
REFERENCE_POINTS
 10
-29.79361977675608
 20
23.4273821331989
 30
0.0
  0
VERTEX
  5
2A4
  8
REFERENCE_POINTS
 10
-30.34406264899784
 20
22.71095215539112
 30
0.0
  0
VERTEX
  5
2A5
  8
REFERENCE_POINTS
 10
-30.87767259120911
 20
21.98117769649527
 30
0.0
  0
VERTEX
  5
2A6
  8
REFERENCE_POINTS
 10
-31.39415894747222
 20
21.23834939006415
 30
0.0
  0
VERTEX
  5
2A7
  8
REFERENCE_POINTS
 10
-31.89323106186954
 20
20.48275786965058
 30
0.0
  0
VERTEX
  5
2A8
  8
REFERENCE_POINTS
 10
-32.37459827848343
 20
19.71469376880735
 30
0.0
  0
VERTEX
  5
2A9
  8
REFERENCE_POINTS
 10
-32.83796994139623
 20
18.93444772108727
 30
0.0
  0
VERTEX
  5
2AA
  8
REFERENCE_POINTS
 10
-33.28305539469029
 20
18.14231036004313
 30
0.0
  0
VERTEX
  5
2AB
  8
REFERENCE_POINTS
 10
-33.70956398244798
 20
17.33857231922775
 30
0.0
  0
VERTEX
  5
2AC
  8
REFERENCE_POINTS
 10
-34.11720504875164
 20
16.52352423219392
 30
0.0
  0
VERTEX
  5
2AD
  8
REFERENCE_POINTS
 10
-34.50568793768363
 20
15.69745673249446
 30
0.0
  0
VERTEX
  5
2AE
  8
REFERENCE_POINTS
 10
-34.87472199332629
 20
14.86066045368215
 30
0.0
  0
VERTEX
  5
2AF
  8
REFERENCE_POINTS
 10
-35.22401655976198
 20
14.01342602930981
 30
0.0
  0
VERTEX
  5
2B0
  8
REFERENCE_POINTS
 10
-35.55328098107307
 20
13.15604409293024
 30
0.0
  0
VERTEX
  5
2B1
  8
REFERENCE_POINTS
 10
-35.86222460134189
 20
12.28880527809624
 30
0.0
  0
VERTEX
  5
2B2
  8
REFERENCE_POINTS
 10
-36.15055676465079
 20
11.41200021836061
 30
0.0
  0
VERTEX
  5
2B3
  8
REFERENCE_POINTS
 10
-36.41798681508214
 20
10.52591954727617
 30
0.0
  0
VERTEX
  5
2B4
  8
REFERENCE_POINTS
 10
-36.6642240967183
 20
9.630853898395703
 30
0.0
  0
VERTEX
  5
2B5
  8
REFERENCE_POINTS
 10
-36.88897795364161
 20
8.727093905272024
 30
0.0
  0
VERTEX
  5
2B6
  8
REFERENCE_POINTS
 10
-37.09195772993441
 20
7.814930201457932
 30
0.0
  0
VERTEX
  5
2B7
  8
REFERENCE_POINTS
 10
-37.27287276967908
 20
6.894653420506232
 30
0.0
  0
VERTEX
  5
2B8
  8
REFERENCE_POINTS
 10
-37.43143241695795
 20
5.966554195969726
 30
0.0
  0
VERTEX
  5
2B9
  8
REFERENCE_POINTS
 10
-37.56734601585339
 20
5.030923161401219
 30
0.0
  0
VERTEX
  5
2BA
  8
REFERENCE_POINTS
 10
-37.68032291044774
 20
4.088050950353514
 30
0.0
  0
VERTEX
  5
2BB
  8
REFERENCE_POINTS
 10
-37.77007244482335
 20
3.138228196379413
 30
0.0
  0
VERTEX
  5
2BC
  8
REFERENCE_POINTS
 10
-37.83630396306259
 20
2.181745533031719
 30
0.0
  0
VERTEX
  5
2BD
  8
REFERENCE_POINTS
 10
-37.87872680924781
 20
1.218893593863236
 30
0.0
  0
VERTEX
  5
2BE
  8
REFERENCE_POINTS
 10
-37.89705032746136
 20
0.2499630124267681
 30
0.0
  0
VERTEX
  5
2BF
  8
REFERENCE_POINTS
 10
-37.9
 20
0.250000000000001
 30
0.0
 42
0.4142135623730951
  0
VERTEX
  5
2C0
  8
REFERENCE_POINTS
 10
-38.15
 20
0.0
 30
0.0
 42
0.4142135623730951
  0
VERTEX
  5
2C1
  8
REFERENCE_POINTS
 10
-37.9
 20
-0.250000000000001
 30
0.0
  0
SEQEND
  5
707
  8
REFERENCE_POINTS
  0
POLYLINE
  5
A9
  8
DIMENSIONI
 66
     1
 10
0.0
 20
0.0
 30
0.0
 70
     1
  0
VERTEX
  5
2C2
  8
DIMENSIONI
 10
-4.202064896755163
 20
49.1361436855929
 30
0.0
  0
VERTEX
  5
2C3
  8
DIMENSIONI
 10
-4.418418141592921
 20
49.32124693043066
 30
0.0
  0
VERTEX
  5
2C4
  8
DIMENSIONI
 10
-4.592551622418879
 20
49.48717613397048
 30
0.0
  0
VERTEX
  5
2C5
  8
DIMENSIONI
 10
-4.724465339233038
 20
49.63393129621237
 30
0.0
  0
VERTEX
  5
2C6
  8
DIMENSIONI
 10
-4.814159292035399
 20
49.76151241715632
 30
0.0
  0
VERTEX
  5
2C7
  8
DIMENSIONI
 10
-4.874170353982301
 20
49.88061271214157
 30
0.0
  0
VERTEX
  5
2C8
  8
DIMENSIONI
 10
-4.917035398230088
 20
50.00192539650735
 30
0.0
  0
VERTEX
  5
2C9
  8
DIMENSIONI
 10
-4.94275442477876
 20
50.12545047025367
 30
0.0
  0
VERTEX
  5
2CA
  8
DIMENSIONI
 10
-4.951327433628318
 20
50.25118793338051
 30
0.0
  0
VERTEX
  5
2CB
  8
DIMENSIONI
 10
-4.94662610619469
 20
50.34685072836575
 30
0.0
  0
VERTEX
  5
2CC
  8
DIMENSIONI
 10
-4.932522123893804
 20
50.43914884783479
 30
0.0
  0
VERTEX
  5
2CD
  8
DIMENSIONI
 10
-4.909015486725663
 20
50.52808229178758
 30
0.0
  0
VERTEX
  5
2CE
  8
DIMENSIONI
 10
-4.876106194690266
 20
50.61365106022417
 30
0.0
  0
VERTEX
  5
2CF
  8
DIMENSIONI
 10
-4.833794247787611
 20
50.69585515314452
 30
0.0
  0
VERTEX
  5
2D0
  8
DIMENSIONI
 10
-4.782079646017699
 20
50.77469457054865
 30
0.0
  0
VERTEX
  5
2D1
  8
DIMENSIONI
 10
-4.720962389380531
 20
50.85016931243655
 30
0.0
  0
VERTEX
  5
2D2
  8
DIMENSIONI
 10
-4.650442477876106
 20
50.92227937880823
 30
0.0
  0
VERTEX
  5
2D3
  8
DIMENSIONI
 10
-4.572133112094395
 20
50.98830537438345
 30
0.0
  0
VERTEX
  5
2D4
  8
DIMENSIONI
 10
-4.487647492625368
 20
51.04552790388198
 30
0.0
  0
VERTEX
  5
2D5
  8
DIMENSIONI
 10
-4.396985619469025
 20
51.09394696730381
 30
0.0
  0
VERTEX
  5
2D6
  8
DIMENSIONI
 10
-4.300147492625368
 20
51.13356256464894
 30
0.0
  0
VERTEX
  5
2D7
  8
DIMENSIONI
 10
-4.197133112094395
 20
51.16437469591737
 30
0.0
  0
VERTEX
  5
2D8
  8
DIMENSIONI
 10
-4.087942477876106
 20
51.18638336110912
 30
0.0
  0
VERTEX
  5
2D9
  8
DIMENSIONI
 10
-3.972575589970501
 20
51.19958856022417
 30
0.0
  0
VERTEX
  5
2DA
  8
DIMENSIONI
 10
-3.851032448377581
 20
51.20399029326251
 30
0.0
  0
VERTEX
  5
2DB
  8
DIMENSIONI
 10
-3.733038348082596
 20
51.19988815461944
 30
0.0
  0
VERTEX
  5
2DC
  8
DIMENSIONI
 10
-3.62094395280236
 20
51.18758173869024
 30
0.0
  0
VERTEX
  5
2DD
  8
DIMENSIONI
 10
-3.514749262536873
 20
51.16707104547491
 30
0.0
  0
VERTEX
  5
2DE
  8
DIMENSIONI
 10
-3.414454277286135
 20
51.13835607497343
 30
0.0
  0
VERTEX
  5
2DF
  8
DIMENSIONI
 10
-3.320058997050147
 20
51.10143682718582
 30
0.0
  0
VERTEX
  5
2E0
  8
DIMENSIONI
 10
-3.231563421828908
 20
51.05631330211207
 30
0.0
  0
VERTEX
  5
2E1
  8
DIMENSIONI
 10
-3.148967551622419
 20
51.00298549975219
 30
0.0
  0
VERTEX
  5
2E2
  8
DIMENSIONI
 10
-3.072271386430678
 20
50.94145342010617
 30
0.0
  0
VERTEX
  5
2E3
  8
DIMENSIONI
 10
-3.003134218289086
 20
50.87466691568139
 30
0.0
  0
VERTEX
  5
2E4
  8
DIMENSIONI
 10
-2.943215339233038
 20
50.80557583898523
 30
0.0
  0
VERTEX
  5
2E5
  8
DIMENSIONI
 10
-2.892514749262537
 20
50.73418019001768
 30
0.0
  0
VERTEX
  5
2E6
  8
DIMENSIONI
 10
-2.851032448377581
 20
50.66047996877874
 30
0.0
  0
VERTEX
  5
2E7
  8
DIMENSIONI
 10
-2.81876843657817
 20
50.58447517526842
 30
0.0
  0
VERTEX
  5
2E8
  8
DIMENSIONI
 10
-2.795722713864306
 20
50.5061658094867
 30
0.0
  0
VERTEX
  5
2E9
  8
DIMENSIONI
 10
-2.781895280235988
 20
50.42555187143361
 30
0.0
  0
VERTEX
  5
2EA
  8
DIMENSIONI
 10
-2.777286135693215
 20
50.34263336110912
 30
0.0
  0
VERTEX
  5
2EB
  8
DIMENSIONI
 10
-2.787241887905604
 20
50.22998586848375
 30
0.0
  0
VERTEX
  5
2EC
  8
DIMENSIONI
 10
-2.817109144542773
 20
50.11623218116812
 30
0.0
  0
VERTEX
  5
2ED
  8
DIMENSIONI
 10
-2.86688790560472
 20
50.00137229916222
 30
0.0
  0
VERTEX
  5
2EE
  8
DIMENSIONI
 10
-2.936578171091446
 20
49.88540622246605
 30
0.0
  0
VERTEX
  5
2EF
  8
DIMENSIONI
 10
-3.037794985250737
 20
49.76372480653685
 30
0.0
  0
VERTEX
  5
2F0
  8
DIMENSIONI
 10
-3.182153392330384
 20
49.63171890683184
 30
0.0
  0
VERTEX
  5
2F1
  8
DIMENSIONI
 10
-3.369653392330384
 20
49.48938852335101
 30
0.0
  0
VERTEX
  5
2F2
  8
DIMENSIONI
 10
-3.600294985250737
 20
49.33673365609437
 30
0.0
  0
VERTEX
  5
2F3
  8
DIMENSIONI
 10
-3.362647492625368
 20
49.14683690093213
 30
0.0
  0
VERTEX
  5
2F4
  8
DIMENSIONI
 10
-3.168879056047198
 20
48.97832657644835
 30
0.0
  0
VERTEX
  5
2F5
  8
DIMENSIONI
 10
-3.018989675516224
 20
48.83120268264305
 30
0.0
  0
VERTEX
  5
2F6
  8
DIMENSIONI
 10
-2.912979351032448
 20
48.7054652195162
 30
0.0
  0
VERTEX
  5
2F7
  8
DIMENSIONI
 10
-2.814896755162242
 20
48.55299471804127
 30
0.0
  0
VERTEX
  5
2F8
  8
DIMENSIONI
 10
-2.744837758112094
 20
48.3964681693687
 30
0.0
  0
VERTEX
  5
2F9
  8
DIMENSIONI
 10
-2.702802359882006
 20
48.23588557349849
 30
0.0
  0
VERTEX
  5
2FA
  8
DIMENSIONI
 10
-2.688790560471976
 20
48.07124693043065
 30
0.0
  0
VERTEX
  5
2FB
  8
DIMENSIONI
 10
-2.693814528023599
 20
47.96770249827726
 30
0.0
  0
VERTEX
  5
2FC
  8
DIMENSIONI
 10
-2.708886430678466
 20
47.86798365609437
 30
0.0
  0
VERTEX
  5
2FD
  8
DIMENSIONI
 10
-2.734006268436578
 20
47.77209040388198
 30
0.0
  0
VERTEX
  5
2FE
  8
DIMENSIONI
 10
-2.769174041297935
 20
47.68002274164009
 30
0.0
  0
VERTEX
  5
2FF
  8
DIMENSIONI
 10
-2.814389749262537
 20
47.59178066936871
 30
0.0
  0
VERTEX
  5
300
  8
DIMENSIONI
 10
-2.869653392330383
 20
47.50736418706782
 30
0.0
  0
VERTEX
  5
301
  8
DIMENSIONI
 10
-2.934964970501475
 20
47.42677329473744
 30
0.0
  0
VERTEX
  5
302
  8
DIMENSIONI
 10
-3.010324483775811
 20
47.35000799237756
 30
0.0
  0
VERTEX
  5
303
  8
DIMENSIONI
 10
-3.093842182890856
 20
47.27983376671384
 30
0.0
  0
VERTEX
  5
304
  8
DIMENSIONI
 10
-3.183628318584071
 20
47.21901610447195
 30
0.0
  0
VERTEX
  5
305
  8
DIMENSIONI
 10
-3.279682890855458
 20
47.16755500565189
 30
0.0
  0
VERTEX
  5
306
  8
DIMENSIONI
 10
-3.382005899705015
 20
47.12545047025367
 30
0.0
  0
VERTEX
  5
307
  8
DIMENSIONI
 10
-3.490597345132743
 20
47.09270249827726
 30
0.0
  0
VERTEX
  5
308
  8
DIMENSIONI
 10
-3.605457227138643
 20
47.06931108972269
 30
0.0
  0
VERTEX
  5
309
  8
DIMENSIONI
 10
-3.726585545722714
 20
47.05527624458995
 30
0.0
  0
VERTEX
  5
30A
  8
DIMENSIONI
 10
-3.853982300884955
 20
47.05059796287903
 30
0.0
  0
VERTEX
  5
30B
  8
DIMENSIONI
 10
-3.992394911504425
 20
47.05617502777579
 30
0.0
  0
VERTEX
  5
30C
  8
DIMENSIONI
 10
-4.12297197640118
 20
47.07290622246605
 30
0.0
  0
VERTEX
  5
30D
  8
DIMENSIONI
 10
-4.245713495575221
 20
47.10079154694983
 30
0.0
  0
VERTEX
  5
30E
  8
DIMENSIONI
 10
-4.360619469026549
 20
47.13983100122712
 30
0.0
  0
VERTEX
  5
30F
  8
DIMENSIONI
 10
-4.467689896755163
 20
47.19002458529791
 30
0.0
  0
VERTEX
  5
310
  8
DIMENSIONI
 10
-4.566924778761061
 20
47.25137229916222
 30
0.0
  0
VERTEX
  5
311
  8
DIMENSIONI
 10
-4.658324115044247
 20
47.32387414282004
 30
0.0
  0
VERTEX
  5
312
  8
DIMENSIONI
 10
-4.741887905604719
 20
47.40753011627137
 30
0.0
  0
VERTEX
  5
313
  8
DIMENSIONI
 10
-4.852876106194691
 20
47.55391654694984
 30
0.0
  0
VERTEX
  5
314
  8
DIMENSIONI
 10
-4.896478613569322
 20
47.62959870034216
 30
0.0
  0
VERTEX
  5
315
  8
DIMENSIONI
 10
-4.932153392330383
 20
47.70694014576989
 30
0.0
  0
VERTEX
  5
316
  8
DIMENSIONI
 10
-4.959900442477876
 20
47.78594088323302
 30
0.0
  0
VERTEX
  5
317
  8
DIMENSIONI
 10
-4.979719764011799
 20
47.86660091273154
 30
0.0
  0
VERTEX
  5
318
  8
DIMENSIONI
 10
-4.991611356932153
 20
47.94892023426547
 30
0.0
  0
VERTEX
  5
319
  8
DIMENSIONI
 10
-4.995575221238938
 20
48.03289884783479
 30
0.0
  0
VERTEX
  5
31A
  8
DIMENSIONI
 10
-4.984421091445427
 20
48.16536566199407
 30
0.0
  0
VERTEX
  5
31B
  8
DIMENSIONI
 10
-4.950958702064897
 20
48.29727937880823
 30
0.0
  0
VERTEX
  5
31C
  8
DIMENSIONI
 10
-4.895188053097344
 20
48.42863999827726
 30
0.0
  0
VERTEX
  5
31D
  8
DIMENSIONI
 10
-4.817109144542773
 20
48.55944752040116
 30
0.0
  0
VERTEX
  5
31E
  8
DIMENSIONI
 10
-4.711744100294985
 20
48.69338926081414
 30
0.0
  0
VERTEX
  5
31F
  8
DIMENSIONI
 10
-4.574115044247788
 20
48.83415253515042
 30
0.0
  0
VERTEX
  5
320
  8
DIMENSIONI
 10
-4.40422197640118
 20
48.98173734341002
 30
0.0
  0
SEQEND
  5
708
  8
DIMENSIONI
  0
POLYLINE
  5
AA
  8
DIMENSIONI
 66
     1
 10
0.0
 20
0.0
 30
0.0
 70
     1
  0
VERTEX
  5
321
  8
DIMENSIONI
 10
-3.738938053097345
 20
49.45177790388198
 30
0.0
  0
VERTEX
  5
322
  8
DIMENSIONI
 10
-3.578171091445428
 20
49.60268129621237
 30
0.0
  0
VERTEX
  5
323
  8
DIMENSIONI
 10
-3.449852507374632
 20
49.73680740240705
 30
0.0
  0
VERTEX
  5
324
  8
DIMENSIONI
 10
-3.353982300884956
 20
49.85415622246605
 30
0.0
  0
VERTEX
  5
325
  8
DIMENSIONI
 10
-3.290560471976401
 20
49.95472775638936
 30
0.0
  0
VERTEX
  5
326
  8
DIMENSIONI
 10
-3.249262536873156
 20
50.04995268264305
 30
0.0
  0
VERTEX
  5
327
  8
DIMENSIONI
 10
-3.21976401179941
 20
50.15126167969319
 30
0.0
  0
VERTEX
  5
328
  8
DIMENSIONI
 10
-3.202064896755162
 20
50.2586547475398
 30
0.0
  0
VERTEX
  5
329
  8
DIMENSIONI
 10
-3.196165191740413
 20
50.37213188618287
 30
0.0
  0
VERTEX
  5
32A
  8
DIMENSIONI
 10
-3.207042772861357
 20
50.51861049975219
 30
0.0
  0
VERTEX
  5
32B
  8
DIMENSIONI
 10
-3.239675516224188
 20
50.64831182718581
 30
0.0
  0
VERTEX
  5
32C
  8
DIMENSIONI
 10
-3.294063421828908
 20
50.76123586848374
 30
0.0
  0
VERTEX
  5
32D
  8
DIMENSIONI
 10
-3.370206489675516
 20
50.857382623646
 30
0.0
  0
VERTEX
  5
32E
  8
DIMENSIONI
 10
-3.465154867256637
 20
50.93417097172859
 30
0.0
  0
VERTEX
  5
32F
  8
DIMENSIONI
 10
-3.575958702064897
 20
50.98901979178759
 30
0.0
  0
VERTEX
  5
330
  8
DIMENSIONI
 10
-3.702617994100295
 20
51.02192908382298
 30
0.0
  0
VERTEX
  5
331
  8
DIMENSIONI
 10
-3.845132743362832
 20
51.03289884783479
 30
0.0
  0
VERTEX
  5
332
  8
DIMENSIONI
 10
-3.988569321533923
 20
51.02202126671385
 30
0.0
  0
VERTEX
  5
333
  8
DIMENSIONI
 10
-4.117994100294985
 20
50.98938852335101
 30
0.0
  0
VERTEX
  5
334
  8
DIMENSIONI
 10
-4.233407079646017
 20
50.9350006177463
 30
0.0
  0
VERTEX
  5
335
  8
DIMENSIONI
 10
-4.334808259587021
 20
50.85885754989968
 30
0.0
  0
VERTEX
  5
336
  8
DIMENSIONI
 10
-4.41740412979351
 20
50.76814958529791
 30
0.0
  0
VERTEX
  5
337
  8
DIMENSIONI
 10
-4.476401179941004
 20
50.6700669894277
 30
0.0
  0
VERTEX
  5
338
  8
DIMENSIONI
 10
-4.511799410029498
 20
50.56460976228906
 30
0.0
  0
VERTEX
  5
339
  8
DIMENSIONI
 10
-4.523598820058996
 20
50.45177790388198
 30
0.0
  0
VERTEX
  5
33A
  8
DIMENSIONI
 10
-4.518713126843657
 20
50.37508173869024
 30
0.0
  0
VERTEX
  5
33B
  8
DIMENSIONI
 10
-4.50405604719764
 20
50.29838557349851
 30
0.0
  0
VERTEX
  5
33C
  8
DIMENSIONI
 10
-4.479627581120944
 20
50.22168940830677
 30
0.0
  0
VERTEX
  5
33D
  8
DIMENSIONI
 10
-4.445427728613569
 20
50.14499324311502
 30
0.0
  0
VERTEX
  5
33E
  8
DIMENSIONI
 10
-4.402193952802358
 20
50.06921890683184
 30
0.0
  0
VERTEX
  5
33F
  8
DIMENSIONI
 10
-4.350663716814159
 20
49.99528822836577
 30
0.0
  0
VERTEX
  5
340
  8
DIMENSIONI
 10
-4.222713864306785
 20
49.85295784488493
 30
0.0
  0
SEQEND
  5
709
  8
DIMENSIONI
  0
POLYLINE
  5
AB
  8
DIMENSIONI
 66
     1
 10
0.0
 20
0.0
 30
0.0
 70
     1
  0
VERTEX
  5
341
  8
DIMENSIONI
 10
-4.063421828908554
 20
49.02404929031266
 30
0.0
  0
VERTEX
  5
342
  8
DIMENSIONI
 10
-4.177912979351032
 20
48.91849988028316
 30
0.0
  0
VERTEX
  5
343
  8
DIMENSIONI
 10
-4.276548672566372
 20
48.80834132571088
 30
0.0
  0
VERTEX
  5
344
  8
DIMENSIONI
 10
-4.359328908554573
 20
48.69357362659584
 30
0.0
  0
VERTEX
  5
345
  8
DIMENSIONI
 10
-4.426253687315635
 20
48.57419678293803
 30
0.0
  0
VERTEX
  5
346
  8
DIMENSIONI
 10
-4.477876106194691
 20
48.45002642895573
 30
0.0
  0
VERTEX
  5
347
  8
DIMENSIONI
 10
-4.514749262536873
 20
48.32087819886723
 30
0.0
  0
VERTEX
  5
348
  8
DIMENSIONI
 10
-4.536873156342184
 20
48.18675209267254
 30
0.0
  0
VERTEX
  5
349
  8
DIMENSIONI
 10
-4.54424778761062
 20
48.04764811037166
 30
0.0
  0
VERTEX
  5
34A
  8
DIMENSIONI
 10
-4.53125
 20
47.86687746140411
 30
0.0
  0
VERTEX
  5
34B
  8
DIMENSIONI
 10
-4.492256637168142
 20
47.70509648795278
 30
0.0
  0
VERTEX
  5
34C
  8
DIMENSIONI
 10
-4.463011615044248
 20
47.6313271295457
 30
0.0
  0
VERTEX
  5
34D
  8
DIMENSIONI
 10
-4.427267699115045
 20
47.56230519001767
 30
0.0
  0
VERTEX
  5
34E
  8
DIMENSIONI
 10
-4.385024889380531
 20
47.49803066936871
 30
0.0
  0
VERTEX
  5
34F
  8
DIMENSIONI
 10
-4.336283185840708
 20
47.4385035675988
 30
0.0
  0
VERTEX
  5
350
  8
DIMENSIONI
 10
-4.282517514749262
 20
47.38492226228907
 30
0.0
  0
VERTEX
  5
351
  8
DIMENSIONI
 10
-4.225202802359882
 20
47.33848513102063
 30
0.0
  0
VERTEX
  5
352
  8
DIMENSIONI
 10
-4.164339048672566
 20
47.29919217379349
 30
0.0
  0
VERTEX
  5
353
  8
DIMENSIONI
 10
-4.099926253687316
 20
47.26704339060765
 30
0.0
  0
VERTEX
  5
354
  8
DIMENSIONI
 10
-4.031964417404129
 20
47.24203878146311
 30
0.0
  0
VERTEX
  5
355
  8
DIMENSIONI
 10
-3.960453539823008
 20
47.22417834635986
 30
0.0
  0
VERTEX
  5
356
  8
DIMENSIONI
 10
-3.806784660766962
 20
47.20988999827726
 30
0.0
  0
VERTEX
  5
357
  8
DIMENSIONI
 10
-3.655420353982301
 20
47.22113631096163
 30
0.0
  0
VERTEX
  5
358
  8
DIMENSIONI
 10
-3.519911504424779
 20
47.25487524901472
 30
0.0
  0
VERTEX
  5
359
  8
DIMENSIONI
 10
-3.400258112094395
 20
47.31110681243656
 30
0.0
  0
VERTEX
  5
35A
  8
DIMENSIONI
 10
-3.29646017699115
 20
47.38983100122712
 30
0.0
  0
VERTEX
  5
35B
  8
DIMENSIONI
 10
-3.212573746312684
 20
47.48459501302652
 30
0.0
  0
VERTEX
  5
35C
  8
DIMENSIONI
 10
-3.152654867256637
 20
47.5889460454749
 30
0.0
  0
VERTEX
  5
35D
  8
DIMENSIONI
 10
-3.116703539823008
 20
47.70288409857225
 30
0.0
  0
VERTEX
  5
35E
  8
DIMENSIONI
 10
-3.104719764011799
 20
47.82640917231856
 30
0.0
  0
VERTEX
  5
35F
  8
DIMENSIONI
 10
-3.111725663716814
 20
47.92983837585838
 30
0.0
  0
VERTEX
  5
360
  8
DIMENSIONI
 10
-3.132743362831858
 20
48.02773660594688
 30
0.0
  0
VERTEX
  5
361
  8
DIMENSIONI
 10
-3.167772861356932
 20
48.12010386258405
 30
0.0
  0
VERTEX
  5
362
  8
DIMENSIONI
 10
-3.216814159292035
 20
48.20694014576989
 30
0.0
  0
VERTEX
  5
363
  8
DIMENSIONI
 10
-3.348266961651917
 20
48.37526610447196
 30
0.0
  0
VERTEX
  5
364
  8
DIMENSIONI
 10
-3.533185840707964
 20
48.56755961479644
 30
0.0
  0
VERTEX
  5
365
  8
DIMENSIONI
 10
-3.771570796460177
 20
48.78382067674335
 30
0.0
  0
SEQEND
  5
70A
  8
DIMENSIONI
  0
POLYLINE
  5
AC
  8
DIMENSIONI
 66
     1
 10
0.0
 20
0.0
 30
0.0
 70
     1
  0
VERTEX
  5
366
  8
DIMENSIONI
 10
-2.122418879056047
 20
49.09779560299702
 30
0.0
  0
VERTEX
  5
367
  8
DIMENSIONI
 10
-2.109513274336283
 20
49.42808690093213
 30
0.0
  0
VERTEX
  5
368
  8
DIMENSIONI
 10
-2.070796460176991
 20
49.73459501302653
 30
0.0
  0
VERTEX
  5
369
  8
DIMENSIONI
 10
-2.041758849557522
 20
49.87893037438346
 30
0.0
  0
VERTEX
  5
36A
  8
DIMENSIONI
 10
-2.006268436578171
 20
50.01731993928021
 30
0.0
  0
VERTEX
  5
36B
  8
DIMENSIONI
 10
-1.964325221238938
 20
50.14976370771679
 30
0.0
  0
VERTEX
  5
36C
  8
DIMENSIONI
 10
-1.915929203539823
 20
50.27626167969319
 30
0.0
  0
VERTEX
  5
36D
  8
DIMENSIONI
 10
-1.804203539823009
 20
50.50754855284953
 30
0.0
  0
VERTEX
  5
36E
  8
DIMENSIONI
 10
-1.741980088495575
 20
50.61136953367549
 30
0.0
  0
VERTEX
  5
36F
  8
DIMENSIONI
 10
-1.67551622418879
 20
50.7073088773333
 30
0.0
  0
VERTEX
  5
370
  8
DIMENSIONI
 10
-1.604811946902655
 20
50.79536658382298
 30
0.0
  0
VERTEX
  5
371
  8
DIMENSIONI
 10
-1.529867256637168
 20
50.87554265314452
 30
0.0
  0
VERTEX
  5
372
  8
DIMENSIONI
 10
-1.45068215339233
 20
50.94783708529792
 30
0.0
  0
VERTEX
  5
373
  8
DIMENSIONI
 10
-1.367256637168141
 20
51.01224988028316
 30
0.0
  0
VERTEX
  5
374
  8
DIMENSIONI
 10
-1.233407079646017
 20
51.09613631096163
 30
0.0
  0
VERTEX
  5
375
  8
DIMENSIONI
 10
-1.097345132743363
 20
51.15605519001767
 30
0.0
  0
VERTEX
  5
376
  8
DIMENSIONI
 10
-0.9590707964601769
 20
51.1920065174513
 30
0.0
  0
VERTEX
  5
377
  8
DIMENSIONI
 10
-0.81858407079646
 20
51.20399029326251
 30
0.0
  0
VERTEX
  5
378
  8
DIMENSIONI
 10
-0.7050147492625367
 20
51.19666175343951
 30
0.0
  0
VERTEX
  5
379
  8
DIMENSIONI
 10
-0.594395280235988
 20
51.17467613397048
 30
0.0
  0
VERTEX
  5
37A
  8
DIMENSIONI
 10
-0.4867256637168139
 20
51.13803343485543
 30
0.0
  0
VERTEX
  5
37B
  8
DIMENSIONI
 10
-0.3820058997050145
 20
51.08673365609437
 30
0.0
  0
VERTEX
  5
37C
  8
DIMENSIONI
 10
-0.2802359882005897
 20
51.02077679768729
 30
0.0
  0
VERTEX
  5
37D
  8
DIMENSIONI
 10
-0.1814159292035396
 20
50.94016285963419
 30
0.0
  0
VERTEX
  5
37E
  8
DIMENSIONI
 10
-0.0855457227138641
 20
50.84489184193508
 30
0.0
  0
VERTEX
  5
37F
  8
DIMENSIONI
 10
0.0073746312684366
 20
50.73496374458995
 30
0.0
  0
VERTEX
  5
380
  8
DIMENSIONI
 10
0.1145372418879058
 20
50.58323070624186
 30
0.0
  0
VERTEX
  5
381
  8
DIMENSIONI
 10
0.207411504424779
 20
50.41859206317402
 30
0.0
  0
VERTEX
  5
382
  8
DIMENSIONI
 10
0.2859974188790564
 20
50.24104781538641
 30
0.0
  0
VERTEX
  5
383
  8
DIMENSIONI
 10
0.3502949852507378
 20
50.05059796287903
 30
0.0
  0
VERTEX
  5
384
  8
DIMENSIONI
 10
0.4003042035398234
 20
49.84724250565189
 30
0.0
  0
VERTEX
  5
385
  8
DIMENSIONI
 10
0.4360250737463131
 20
49.63098144370499
 30
0.0
  0
VERTEX
  5
386
  8
DIMENSIONI
 10
0.4574575958702069
 20
49.40181477703833
 30
0.0
  0
VERTEX
  5
387
  8
DIMENSIONI
 10
0.4646017699115048
 20
49.15974250565189
 30
0.0
  0
VERTEX
  5
388
  8
DIMENSIONI
 10
0.4520648967551626
 20
48.82474988028316
 30
0.0
  0
VERTEX
  5
389
  8
DIMENSIONI
 10
0.414454277286136
 20
48.51593719591738
 30
0.0
  0
VERTEX
  5
38A
  8
DIMENSIONI
 10
0.386246312684366
 20
48.3713483316106
 30
0.0
  0
VERTEX
  5
38B
  8
DIMENSIONI
 10
0.351769911504425
 20
48.23330445255455
 30
0.0
  0
VERTEX
  5
38C
  8
DIMENSIONI
 10
0.3110250737463129
 20
48.10180555874924
 30
0.0
  0
VERTEX
  5
38D
  8
DIMENSIONI
 10
0.2640117994100297
 20
47.97685165019467
 30
0.0
  0
VERTEX
  5
38E
  8
DIMENSIONI
 10
0.156803097345133
 20
47.7501739215811
 30
0.0
  0
VERTEX
  5
38F
  8
DIMENSIONI
 10
0.0357669616519177
 20
47.55686639945721
 30
0.0
  0
VERTEX
  5
390
  8
DIMENSIONI
 10
-0.0299363938053094
 20
47.47272646582888
 30
0.0
  0
VERTEX
  5
391
  8
DIMENSIONI
 10
-0.0990966076696162
 20
47.39692908382299
 30
0.0
  0
VERTEX
  5
392
  8
DIMENSIONI
 10
-0.1717136799410028
 20
47.32947425343951
 30
0.0
  0
VERTEX
  5
393
  8
DIMENSIONI
 10
-0.247787610619469
 20
47.27036197467844
 30
0.0
  0
VERTEX
  5
394
  8
DIMENSIONI
 10
-0.4020095870206488
 20
47.1742152195162
 30
0.0
  0
VERTEX
  5
395
  8
DIMENSIONI
 10
-0.553466076696165
 20
47.10553896582888
 30
0.0
  0
VERTEX
  5
396
  8
DIMENSIONI
 10
-0.7021570796460175
 20
47.06433321361649
 30
0.0
  0
VERTEX
  5
397
  8
DIMENSIONI
 10
-0.8480825958702063
 20
47.05059796287903
 30
0.0
  0
VERTEX
  5
398
  8
DIMENSIONI
 10
-0.9881544985250735
 20
47.06115290388198
 30
0.0
  0
VERTEX
  5
399
  8
DIMENSIONI
 10
-1.122234513274336
 20
47.09281772689083
 30
0.0
  0
VERTEX
  5
39A
  8
DIMENSIONI
 10
-1.250322640117994
 20
47.14559243190558
 30
0.0
  0
VERTEX
  5
39B
  8
DIMENSIONI
 10
-1.372418879056047
 20
47.21947701892623
 30
0.0
  0
VERTEX
  5
39C
  8
DIMENSIONI
 10
-1.488523230088495
 20
47.31447148795278
 30
0.0
  0
VERTEX
  5
39D
  8
DIMENSIONI
 10
-1.598635693215339
 20
47.43057583898523
 30
0.0
  0
VERTEX
  5
39E
  8
DIMENSIONI
 10
-1.702756268436578
 20
47.56779007202358
 30
0.0
  0
VERTEX
  5
39F
  8
DIMENSIONI
 10
-1.800884955752212
 20
47.72611418706782
 30
0.0
  0
VERTEX
  5
3A0
  8
DIMENSIONI
 10
-1.876244469026549
 20
47.87208579473744
 30
0.0
  0
VERTEX
  5
3A1
  8
DIMENSIONI
 10
-1.94155604719764
 20
48.02533985078463
 30
0.0
  0
VERTEX
  5
3A2
  8
DIMENSIONI
 10
-1.996819690265486
 20
48.18587635520942
 30
0.0
  0
VERTEX
  5
3A3
  8
DIMENSIONI
 10
-2.042035398230088
 20
48.35369530801178
 30
0.0
  0
VERTEX
  5
3A4
  8
DIMENSIONI
 10
-2.077203171091446
 20
48.52879670919172
 30
0.0
  0
VERTEX
  5
3A5
  8
DIMENSIONI
 10
-2.102323008849558
 20
48.71118055874923
 30
0.0
  0
VERTEX
  5
3A6
  8
DIMENSIONI
 10
-2.117394911504425
 20
48.90084685668434
 30
0.0
  0
SEQEND
  5
70B
  8
DIMENSIONI
  0
POLYLINE
  5
AD
  8
DIMENSIONI
 66
     1
 10
0.0
 20
0.0
 30
0.0
 70
     1
  0
VERTEX
  5
3A7
  8
DIMENSIONI
 10
-1.544247787610619
 20
49.02404929031266
 30
0.0
  0
VERTEX
  5
3A8
  8
DIMENSIONI
 10
-1.531526548672566
 20
48.63005961479644
 30
0.0
  0
VERTEX
  5
3A9
  8
DIMENSIONI
 10
-1.493362831858407
 20
48.27404929031266
 30
0.0
  0
VERTEX
  5
3AA
  8
DIMENSIONI
 10
-1.464740044247787
 20
48.11028638470793
 30
0.0
  0
VERTEX
  5
3AB
  8
DIMENSIONI
 10
-1.429756637168141
 20
47.95601831686133
 30
0.0
  0
VERTEX
  5
3AC
  8
DIMENSIONI
 10
-1.388412610619469
 20
47.81124508677283
 30
0.0
  0
VERTEX
  5
3AD
  8
DIMENSIONI
 10
-1.34070796460177
 20
47.67596669444246
 30
0.0
  0
VERTEX
  5
3AE
  8
DIMENSIONI
 10
-1.296091445427728
 20
47.57295231391149
 30
0.0
  0
VERTEX
  5
3AF
  8
DIMENSIONI
 10
-1.246312684365781
 20
47.48367318411797
 30
0.0
  0
VERTEX
  5
3B0
  8
DIMENSIONI
 10
-1.191371681415929
 20
47.40812930506193
 30
0.0
  0
VERTEX
  5
3B1
  8
DIMENSIONI
 10
-1.131268436578171
 20
47.34632067674334
 30
0.0
  0
VERTEX
  5
3B2
  8
DIMENSIONI
 10
-1.066002949852507
 20
47.29824729916222
 30
0.0
  0
VERTEX
  5
3B3
  8
DIMENSIONI
 10
-0.9955752212389379
 20
47.26390917231856
 30
0.0
  0
VERTEX
  5
3B4
  8
DIMENSIONI
 10
-0.9199852507374631
 20
47.24330629621237
 30
0.0
  0
VERTEX
  5
3B5
  8
DIMENSIONI
 10
-0.8392330383480824
 20
47.23643867084363
 30
0.0
  0
VERTEX
  5
3B6
  8
DIMENSIONI
 10
-0.7588495575221237
 20
47.24538041125662
 30
0.0
  0
VERTEX
  5
3B7
  8
DIMENSIONI
 10
-0.6769911504424777
 20
47.27220563249556
 30
0.0
  0
VERTEX
  5
3B8
  8
DIMENSIONI
 10
-0.5936578171091443
 20
47.31691433456045
 30
0.0
  0
VERTEX
  5
3B9
  8
DIMENSIONI
 10
-0.5088495575221237
 20
47.3795065174513
 30
0.0
  0
VERTEX
  5
3BA
  8
DIMENSIONI
 10
-0.4284660766961649
 20
47.46311639945721
 30
0.0
  0
VERTEX
  5
3BB
  8
DIMENSIONI
 10
-0.3584070796460174
 20
47.57087819886723
 30
0.0
  0
VERTEX
  5
3BC
  8
DIMENSIONI
 10
-0.2986725663716811
 20
47.7027919156814
 30
0.0
  0
VERTEX
  5
3BD
  8
DIMENSIONI
 10
-0.249262536873156
 20
47.85885754989968
 30
0.0
  0
VERTEX
  5
3BE
  8
DIMENSIONI
 10
-0.1898967551622417
 20
48.13854044075514
 30
0.0
  0
VERTEX
  5
3BF
  8
DIMENSIONI
 10
-0.1474926253687314
 20
48.47021448205307
 30
0.0
  0
VERTEX
  5
3C0
  8
DIMENSIONI
 10
-0.1220501474926252
 20
48.85387967379349
 30
0.0
  0
VERTEX
  5
3C1
  8
DIMENSIONI
 10
-0.1135693215339231
 20
49.28953601597638
 30
0.0
  0
VERTEX
  5
3C2
  8
DIMENSIONI
 10
-0.122418879056047
 20
49.6175227416401
 30
0.0
  0
VERTEX
  5
3C3
  8
DIMENSIONI
 10
-0.1489675516224188
 20
49.91711713692033
 30
0.0
  0
VERTEX
  5
3C4
  8
DIMENSIONI
 10
-0.1932153392330383
 20
50.18831920181709
 30
0.0
  0
VERTEX
  5
3C5
  8
DIMENSIONI
 10
-0.2551622418879056
 20
50.43112893633036
 30
0.0
  0
VERTEX
  5
3C6
  8
DIMENSIONI
 10
-0.312131268436578
 20
50.58839294812977
 30
0.0
  0
VERTEX
  5
3C7
  8
DIMENSIONI
 10
-0.3768436578171089
 20
50.72095194517992
 30
0.0
  0
VERTEX
  5
3C8
  8
DIMENSIONI
 10
-0.4492994100294982
 20
50.8288059274808
 30
0.0
  0
VERTEX
  5
3C9
  8
DIMENSIONI
 10
-0.5294985250737461
 20
50.91195489503242
 30
0.0
  0
VERTEX
  5
3CA
  8
DIMENSIONI
 10
-0.5931047197640116
 20
50.95454339060764
 30
0.0
  0
VERTEX
  5
3CB
  8
DIMENSIONI
 10
-0.6629793510324482
 20
50.98496374458995
 30
0.0
  0
VERTEX
  5
3CC
  8
DIMENSIONI
 10
-0.7391224188790558
 20
51.00321595697933
 30
0.0
  0
VERTEX
  5
3CD
  8
DIMENSIONI
 10
-0.8215339233038346
 20
51.00930002777579
 30
0.0
  0
VERTEX
  5
3CE
  8
DIMENSIONI
 10
-0.9190634218289082
 20
50.99805371509142
 30
0.0
  0
VERTEX
  5
3CF
  8
DIMENSIONI
 10
-1.011061946902655
 20
50.96431477703833
 30
0.0
  0
VERTEX
  5
3D0
  8
DIMENSIONI
 10
-1.097529498525073
 20
50.90808321361649
 30
0.0
  0
VERTEX
  5
3D1
  8
DIMENSIONI
 10
-1.178466076696165
 20
50.82935902482593
 30
0.0
  0
VERTEX
  5
3D2
  8
DIMENSIONI
 10
-1.229443215339233
 20
50.76377089798228
 30
0.0
  0
VERTEX
  5
3D3
  8
DIMENSIONI
 10
-1.27617994100295
 20
50.68942539650735
 30
0.0
  0
VERTEX
  5
3D4
  8
DIMENSIONI
 10
-1.318676253687316
 20
50.60632252040116
 30
0.0
  0
VERTEX
  5
3D5
  8
DIMENSIONI
 10
-1.35693215339233
 20
50.5144622696637
 30
0.0
  0
VERTEX
  5
3D6
  8
DIMENSIONI
 10
-1.420722713864306
 20
50.30446964429497
 30
0.0
  0
VERTEX
  5
3D7
  8
DIMENSIONI
 10
-1.467551622418879
 20
50.05944752040116
 30
0.0
  0
VERTEX
  5
3D8
  8
DIMENSIONI
 10
-1.501106194690265
 20
49.79783247615336
 30
0.0
  0
VERTEX
  5
3D9
  8
DIMENSIONI
 10
-1.525073746312684
 20
49.53806108972269
 30
0.0
  0
VERTEX
  5
3DA
  8
DIMENSIONI
 10
-1.539454277286135
 20
49.28013336110912
 30
0.0
  0
SEQEND
  5
70C
  8
DIMENSIONI
  0
POLYLINE
  5
AE
  8
DIMENSIONI
 66
     1
 10
0.0
 20
0.0
 30
0.0
 70
     1
  0
VERTEX
  5
3DB
  8
DIMENSIONI
 10
1.435103244837758
 20
47.6936658094867
 30
0.0
  0
VERTEX
  5
3DC
  8
DIMENSIONI
 10
1.501659292035398
 20
47.68767392158109
 30
0.0
  0
VERTEX
  5
3DD
  8
DIMENSIONI
 10
1.562684365781711
 20
47.66969825786428
 30
0.0
  0
VERTEX
  5
3DE
  8
DIMENSIONI
 10
1.618178466076696
 20
47.63973881833626
 30
0.0
  0
VERTEX
  5
3DF
  8
DIMENSIONI
 10
1.668141592920354
 20
47.59779560299702
 30
0.0
  0
VERTEX
  5
3E0
  8
DIMENSIONI
 10
1.709439528023599
 20
47.54737156169909
 30
0.0
  0
VERTEX
  5
3E1
  8
DIMENSIONI
 10
1.738938053097345
 20
47.49196964429496
 30
0.0
  0
VERTEX
  5
3E2
  8
DIMENSIONI
 10
1.756637168141593
 20
47.43158985078463
 30
0.0
  0
VERTEX
  5
3E3
  8
DIMENSIONI
 10
1.762536873156342
 20
47.36623218116812
 30
0.0
  0
VERTEX
  5
3E4
  8
DIMENSIONI
 10
1.756544985250737
 20
47.3008745115516
 30
0.0
  0
VERTEX
  5
3E5
  8
DIMENSIONI
 10
1.738569321533923
 20
47.24049471804128
 30
0.0
  0
VERTEX
  5
3E6
  8
DIMENSIONI
 10
1.708609882005899
 20
47.18509280063715
 30
0.0
  0
VERTEX
  5
3E7
  8
DIMENSIONI
 10
1.666666666666667
 20
47.13466875933921
 30
0.0
  0
VERTEX
  5
3E8
  8
DIMENSIONI
 10
1.616242625368731
 20
47.09272554399998
 30
0.0
  0
VERTEX
  5
3E9
  8
DIMENSIONI
 10
1.560840707964601
 20
47.06276610447195
 30
0.0
  0
VERTEX
  5
3EA
  8
DIMENSIONI
 10
1.500460914454277
 20
47.04479044075514
 30
0.0
  0
VERTEX
  5
3EB
  8
DIMENSIONI
 10
1.435103244837758
 20
47.03879855284953
 30
0.0
  0
VERTEX
  5
3EC
  8
DIMENSIONI
 10
1.369745575221239
 20
47.04479044075514
 30
0.0
  0
VERTEX
  5
3ED
  8
DIMENSIONI
 10
1.309365781710914
 20
47.06276610447195
 30
0.0
  0
VERTEX
  5
3EE
  8
DIMENSIONI
 10
1.253963864306784
 20
47.09272554399998
 30
0.0
  0
VERTEX
  5
3EF
  8
DIMENSIONI
 10
1.203539823008849
 20
47.13466875933921
 30
0.0
  0
VERTEX
  5
3F0
  8
DIMENSIONI
 10
1.161596607669616
 20
47.18509280063715
 30
0.0
  0
VERTEX
  5
3F1
  8
DIMENSIONI
 10
1.131637168141593
 20
47.24049471804128
 30
0.0
  0
VERTEX
  5
3F2
  8
DIMENSIONI
 10
1.113661504424778
 20
47.3008745115516
 30
0.0
  0
VERTEX
  5
3F3
  8
DIMENSIONI
 10
1.107669616519174
 20
47.36623218116812
 30
0.0
  0
VERTEX
  5
3F4
  8
DIMENSIONI
 10
1.113661504424778
 20
47.43278822836575
 30
0.0
  0
VERTEX
  5
3F5
  8
DIMENSIONI
 10
1.131637168141593
 20
47.49381330211207
 30
0.0
  0
VERTEX
  5
3F6
  8
DIMENSIONI
 10
1.161596607669616
 20
47.54930740240705
 30
0.0
  0
VERTEX
  5
3F7
  8
DIMENSIONI
 10
1.203539823008849
 20
47.59927052925072
 30
0.0
  0
VERTEX
  5
3F8
  8
DIMENSIONI
 10
1.253963864306784
 20
47.64056846435396
 30
0.0
  0
VERTEX
  5
3F9
  8
DIMENSIONI
 10
1.309365781710914
 20
47.6700669894277
 30
0.0
  0
VERTEX
  5
3FA
  8
DIMENSIONI
 10
1.369745575221239
 20
47.68776610447195
 30
0.0
  0
SEQEND
  5
70D
  8
DIMENSIONI
  0
POLYLINE
  5
AF
  8
DIMENSIONI
 66
     1
 10
0.0
 20
0.0
 30
0.0
 70
     1
  0
VERTEX
  5
3FB
  8
DIMENSIONI
 10
2.408554572271385
 20
49.09779560299702
 30
0.0
  0
VERTEX
  5
3FC
  8
DIMENSIONI
 10
2.42146017699115
 20
49.42808690093213
 30
0.0
  0
VERTEX
  5
3FD
  8
DIMENSIONI
 10
2.460176991150442
 20
49.73459501302653
 30
0.0
  0
VERTEX
  5
3FE
  8
DIMENSIONI
 10
2.489214601769911
 20
49.87893037438346
 30
0.0
  0
VERTEX
  5
3FF
  8
DIMENSIONI
 10
2.524705014749262
 20
50.01731993928021
 30
0.0
  0
VERTEX
  5
400
  8
DIMENSIONI
 10
2.566648230088495
 20
50.14976370771679
 30
0.0
  0
VERTEX
  5
401
  8
DIMENSIONI
 10
2.61504424778761
 20
50.27626167969319
 30
0.0
  0
VERTEX
  5
402
  8
DIMENSIONI
 10
2.726769911504424
 20
50.50754855284953
 30
0.0
  0
VERTEX
  5
403
  8
DIMENSIONI
 10
2.788993362831858
 20
50.61136953367549
 30
0.0
  0
VERTEX
  5
404
  8
DIMENSIONI
 10
2.855457227138642
 20
50.7073088773333
 30
0.0
  0
VERTEX
  5
405
  8
DIMENSIONI
 10
2.926161504424778
 20
50.79536658382298
 30
0.0
  0
VERTEX
  5
406
  8
DIMENSIONI
 10
3.001106194690264
 20
50.87554265314452
 30
0.0
  0
VERTEX
  5
407
  8
DIMENSIONI
 10
3.080291297935102
 20
50.94783708529792
 30
0.0
  0
VERTEX
  5
408
  8
DIMENSIONI
 10
3.163716814159291
 20
51.01224988028316
 30
0.0
  0
VERTEX
  5
409
  8
DIMENSIONI
 10
3.297566371681415
 20
51.09613631096163
 30
0.0
  0
VERTEX
  5
40A
  8
DIMENSIONI
 10
3.43362831858407
 20
51.15605519001767
 30
0.0
  0
VERTEX
  5
40B
  8
DIMENSIONI
 10
3.571902654867256
 20
51.1920065174513
 30
0.0
  0
VERTEX
  5
40C
  8
DIMENSIONI
 10
3.712389380530973
 20
51.20399029326251
 30
0.0
  0
VERTEX
  5
40D
  8
DIMENSIONI
 10
3.825958702064896
 20
51.19666175343951
 30
0.0
  0
VERTEX
  5
40E
  8
DIMENSIONI
 10
3.936578171091444
 20
51.17467613397048
 30
0.0
  0
VERTEX
  5
40F
  8
DIMENSIONI
 10
4.044247787610618
 20
51.13803343485543
 30
0.0
  0
VERTEX
  5
410
  8
DIMENSIONI
 10
4.148967551622418
 20
51.08673365609437
 30
0.0
  0
VERTEX
  5
411
  8
DIMENSIONI
 10
4.250737463126843
 20
51.02077679768729
 30
0.0
  0
VERTEX
  5
412
  8
DIMENSIONI
 10
4.349557522123892
 20
50.94016285963419
 30
0.0
  0
VERTEX
  5
413
  8
DIMENSIONI
 10
4.445427728613568
 20
50.84489184193508
 30
0.0
  0
VERTEX
  5
414
  8
DIMENSIONI
 10
4.538348082595869
 20
50.73496374458995
 30
0.0
  0
VERTEX
  5
415
  8
DIMENSIONI
 10
4.645510693215338
 20
50.58323070624186
 30
0.0
  0
VERTEX
  5
416
  8
DIMENSIONI
 10
4.738384955752212
 20
50.41859206317402
 30
0.0
  0
VERTEX
  5
417
  8
DIMENSIONI
 10
4.816970870206489
 20
50.24104781538641
 30
0.0
  0
VERTEX
  5
418
  8
DIMENSIONI
 10
4.88126843657817
 20
50.05059796287903
 30
0.0
  0
VERTEX
  5
419
  8
DIMENSIONI
 10
4.931277654867255
 20
49.84724250565189
 30
0.0
  0
VERTEX
  5
41A
  8
DIMENSIONI
 10
4.966998525073745
 20
49.63098144370499
 30
0.0
  0
VERTEX
  5
41B
  8
DIMENSIONI
 10
4.988431047197639
 20
49.40181477703833
 30
0.0
  0
VERTEX
  5
41C
  8
DIMENSIONI
 10
4.995575221238937
 20
49.15974250565189
 30
0.0
  0
VERTEX
  5
41D
  8
DIMENSIONI
 10
4.983038348082595
 20
48.82474988028316
 30
0.0
  0
VERTEX
  5
41E
  8
DIMENSIONI
 10
4.945427728613568
 20
48.51593719591738
 30
0.0
  0
VERTEX
  5
41F
  8
DIMENSIONI
 10
4.917219764011799
 20
48.3713483316106
 30
0.0
  0
VERTEX
  5
420
  8
DIMENSIONI
 10
4.882743362831858
 20
48.23330445255455
 30
0.0
  0
VERTEX
  5
421
  8
DIMENSIONI
 10
4.841998525073746
 20
48.10180555874924
 30
0.0
  0
VERTEX
  5
422
  8
DIMENSIONI
 10
4.794985250737462
 20
47.97685165019467
 30
0.0
  0
VERTEX
  5
423
  8
DIMENSIONI
 10
4.687776548672566
 20
47.7501739215811
 30
0.0
  0
VERTEX
  5
424
  8
DIMENSIONI
 10
4.566740412979351
 20
47.55686639945721
 30
0.0
  0
VERTEX
  5
425
  8
DIMENSIONI
 10
4.501037057522124
 20
47.47272646582888
 30
0.0
  0
VERTEX
  5
426
  8
DIMENSIONI
 10
4.431876843657816
 20
47.39692908382299
 30
0.0
  0
VERTEX
  5
427
  8
DIMENSIONI
 10
4.35925977138643
 20
47.32947425343951
 30
0.0
  0
VERTEX
  5
428
  8
DIMENSIONI
 10
4.283185840707963
 20
47.27036197467844
 30
0.0
  0
VERTEX
  5
429
  8
DIMENSIONI
 10
4.128963864306783
 20
47.1742152195162
 30
0.0
  0
VERTEX
  5
42A
  8
DIMENSIONI
 10
3.977507374631267
 20
47.10553896582888
 30
0.0
  0
VERTEX
  5
42B
  8
DIMENSIONI
 10
3.828816371681415
 20
47.06433321361649
 30
0.0
  0
VERTEX
  5
42C
  8
DIMENSIONI
 10
3.682890855457226
 20
47.05059796287903
 30
0.0
  0
VERTEX
  5
42D
  8
DIMENSIONI
 10
3.542818952802359
 20
47.06115290388198
 30
0.0
  0
VERTEX
  5
42E
  8
DIMENSIONI
 10
3.408738938053097
 20
47.09281772689083
 30
0.0
  0
VERTEX
  5
42F
  8
DIMENSIONI
 10
3.280650811209439
 20
47.14559243190558
 30
0.0
  0
VERTEX
  5
430
  8
DIMENSIONI
 10
3.158554572271386
 20
47.21947701892623
 30
0.0
  0
VERTEX
  5
431
  8
DIMENSIONI
 10
3.042450221238937
 20
47.31447148795278
 30
0.0
  0
VERTEX
  5
432
  8
DIMENSIONI
 10
2.932337758112094
 20
47.43057583898523
 30
0.0
  0
VERTEX
  5
433
  8
DIMENSIONI
 10
2.828217182890854
 20
47.56779007202358
 30
0.0
  0
VERTEX
  5
434
  8
DIMENSIONI
 10
2.73008849557522
 20
47.72611418706782
 30
0.0
  0
VERTEX
  5
435
  8
DIMENSIONI
 10
2.654728982300884
 20
47.87208579473744
 30
0.0
  0
VERTEX
  5
436
  8
DIMENSIONI
 10
2.589417404129793
 20
48.02533985078463
 30
0.0
  0
VERTEX
  5
437
  8
DIMENSIONI
 10
2.534153761061946
 20
48.18587635520942
 30
0.0
  0
VERTEX
  5
438
  8
DIMENSIONI
 10
2.488938053097344
 20
48.35369530801178
 30
0.0
  0
VERTEX
  5
439
  8
DIMENSIONI
 10
2.453770280235987
 20
48.52879670919172
 30
0.0
  0
VERTEX
  5
43A
  8
DIMENSIONI
 10
2.428650442477875
 20
48.71118055874923
 30
0.0
  0
VERTEX
  5
43B
  8
DIMENSIONI
 10
2.413578539823008
 20
48.90084685668434
 30
0.0
  0
SEQEND
  5
70E
  8
DIMENSIONI
  0
POLYLINE
  5
B0
  8
DIMENSIONI
 66
     1
 10
0.0
 20
0.0
 30
0.0
 70
     1
  0
VERTEX
  5
43C
  8
DIMENSIONI
 10
2.986725663716813
 20
49.02404929031266
 30
0.0
  0
VERTEX
  5
43D
  8
DIMENSIONI
 10
2.999446902654866
 20
48.63005961479644
 30
0.0
  0
VERTEX
  5
43E
  8
DIMENSIONI
 10
3.037610619469026
 20
48.27404929031266
 30
0.0
  0
VERTEX
  5
43F
  8
DIMENSIONI
 10
3.066233407079646
 20
48.11028638470793
 30
0.0
  0
VERTEX
  5
440
  8
DIMENSIONI
 10
3.101216814159292
 20
47.95601831686133
 30
0.0
  0
VERTEX
  5
441
  8
DIMENSIONI
 10
3.142560840707964
 20
47.81124508677283
 30
0.0
  0
VERTEX
  5
442
  8
DIMENSIONI
 10
3.190265486725663
 20
47.67596669444246
 30
0.0
  0
VERTEX
  5
443
  8
DIMENSIONI
 10
3.234882005899704
 20
47.57295231391149
 30
0.0
  0
VERTEX
  5
444
  8
DIMENSIONI
 10
3.284660766961651
 20
47.48367318411797
 30
0.0
  0
VERTEX
  5
445
  8
DIMENSIONI
 10
3.339601769911503
 20
47.40812930506193
 30
0.0
  0
VERTEX
  5
446
  8
DIMENSIONI
 10
3.399705014749262
 20
47.34632067674334
 30
0.0
  0
VERTEX
  5
447
  8
DIMENSIONI
 10
3.464970501474925
 20
47.29824729916222
 30
0.0
  0
VERTEX
  5
448
  8
DIMENSIONI
 10
3.535398230088495
 20
47.26390917231856
 30
0.0
  0
VERTEX
  5
449
  8
DIMENSIONI
 10
3.61098820058997
 20
47.24330629621237
 30
0.0
  0
VERTEX
  5
44A
  8
DIMENSIONI
 10
3.691740412979351
 20
47.23643867084363
 30
0.0
  0
VERTEX
  5
44B
  8
DIMENSIONI
 10
3.772123893805309
 20
47.24538041125662
 30
0.0
  0
VERTEX
  5
44C
  8
DIMENSIONI
 10
3.853982300884955
 20
47.27220563249556
 30
0.0
  0
VERTEX
  5
44D
  8
DIMENSIONI
 10
3.937315634218288
 20
47.31691433456045
 30
0.0
  0
VERTEX
  5
44E
  8
DIMENSIONI
 10
4.022123893805309
 20
47.3795065174513
 30
0.0
  0
VERTEX
  5
44F
  8
DIMENSIONI
 10
4.102507374631268
 20
47.46311639945721
 30
0.0
  0
VERTEX
  5
450
  8
DIMENSIONI
 10
4.172566371681415
 20
47.57087819886723
 30
0.0
  0
VERTEX
  5
451
  8
DIMENSIONI
 10
4.232300884955752
 20
47.7027919156814
 30
0.0
  0
VERTEX
  5
452
  8
DIMENSIONI
 10
4.281710914454276
 20
47.85885754989968
 30
0.0
  0
VERTEX
  5
453
  8
DIMENSIONI
 10
4.341076696165191
 20
48.13854044075514
 30
0.0
  0
VERTEX
  5
454
  8
DIMENSIONI
 10
4.383480825958701
 20
48.47021448205307
 30
0.0
  0
VERTEX
  5
455
  8
DIMENSIONI
 10
4.408923303834808
 20
48.85387967379349
 30
0.0
  0
VERTEX
  5
456
  8
DIMENSIONI
 10
4.41740412979351
 20
49.28953601597638
 30
0.0
  0
VERTEX
  5
457
  8
DIMENSIONI
 10
4.408554572271385
 20
49.6175227416401
 30
0.0
  0
VERTEX
  5
458
  8
DIMENSIONI
 10
4.382005899705014
 20
49.91711713692033
 30
0.0
  0
VERTEX
  5
459
  8
DIMENSIONI
 10
4.337758112094395
 20
50.18831920181709
 30
0.0
  0
VERTEX
  5
45A
  8
DIMENSIONI
 10
4.275811209439527
 20
50.43112893633036
 30
0.0
  0
VERTEX
  5
45B
  8
DIMENSIONI
 10
4.218842182890855
 20
50.58839294812977
 30
0.0
  0
VERTEX
  5
45C
  8
DIMENSIONI
 10
4.154129793510324
 20
50.72095194517992
 30
0.0
  0
VERTEX
  5
45D
  8
DIMENSIONI
 10
4.081674041297935
 20
50.8288059274808
 30
0.0
  0
VERTEX
  5
45E
  8
DIMENSIONI
 10
4.001474926253687
 20
50.91195489503242
 30
0.0
  0
VERTEX
  5
45F
  8
DIMENSIONI
 10
3.937868731563421
 20
50.95454339060764
 30
0.0
  0
VERTEX
  5
460
  8
DIMENSIONI
 10
3.867994100294984
 20
50.98496374458995
 30
0.0
  0
VERTEX
  5
461
  8
DIMENSIONI
 10
3.791851032448377
 20
51.00321595697933
 30
0.0
  0
VERTEX
  5
462
  8
DIMENSIONI
 10
3.709439528023598
 20
51.00930002777579
 30
0.0
  0
VERTEX
  5
463
  8
DIMENSIONI
 10
3.611910029498524
 20
50.99805371509142
 30
0.0
  0
VERTEX
  5
464
  8
DIMENSIONI
 10
3.519911504424778
 20
50.96431477703833
 30
0.0
  0
VERTEX
  5
465
  8
DIMENSIONI
 10
3.433443952802359
 20
50.90808321361649
 30
0.0
  0
VERTEX
  5
466
  8
DIMENSIONI
 10
3.352507374631267
 20
50.82935902482593
 30
0.0
  0
VERTEX
  5
467
  8
DIMENSIONI
 10
3.3015302359882
 20
50.76377089798228
 30
0.0
  0
VERTEX
  5
468
  8
DIMENSIONI
 10
3.254793510324482
 20
50.68942539650735
 30
0.0
  0
VERTEX
  5
469
  8
DIMENSIONI
 10
3.212297197640117
 20
50.60632252040116
 30
0.0
  0
VERTEX
  5
46A
  8
DIMENSIONI
 10
3.174041297935102
 20
50.5144622696637
 30
0.0
  0
VERTEX
  5
46B
  8
DIMENSIONI
 10
3.110250737463126
 20
50.30446964429497
 30
0.0
  0
VERTEX
  5
46C
  8
DIMENSIONI
 10
3.063421828908554
 20
50.05944752040116
 30
0.0
  0
VERTEX
  5
46D
  8
DIMENSIONI
 10
3.029867256637167
 20
49.79783247615336
 30
0.0
  0
VERTEX
  5
46E
  8
DIMENSIONI
 10
3.005899705014748
 20
49.53806108972269
 30
0.0
  0
VERTEX
  5
46F
  8
DIMENSIONI
 10
2.991519174041297
 20
49.28013336110912
 30
0.0
  0
SEQEND
  5
70F
  8
DIMENSIONI
  0
POLYLINE
  5
B1
  8
DIMENSIONI
 66
     1
 10
0.0
 20
0.0
 30
0.0
  0
VERTEX
  5
470
  8
DIMENSIONI
 10
-36.76393202250021
 20
49.20399029326251
 30
0.0
  0
VERTEX
  5
471
  8
DIMENSIONI
 10
-5.495575221238941
 20
49.20399029326251
 30
0.0
  0
SEQEND
  5
710
  8
DIMENSIONI
  0
POLYLINE
  5
B2
  8
DIMENSIONI
 66
     1
 10
0.0
 20
0.0
 30
0.0
  0
VERTEX
  5
472
  8
DIMENSIONI
 10
5.495575221238937
 20
49.20399029326251
 30
0.0
  0
VERTEX
  5
473
  8
DIMENSIONI
 10
36.76393202250021
 20
49.20399029326251
 30
0.0
  0
SEQEND
  5
711
  8
DIMENSIONI
  0
POLYLINE
  5
B3
  8
DIMENSIONI
 66
     1
 10
0.0
 20
0.0
 30
0.0
  0
VERTEX
  5
474
  8
DIMENSIONI
 10
-40.0
 20
2.5
 30
0.0
  0
VERTEX
  5
475
  8
DIMENSIONI
 10
-40.0
 20
51.20399029326251
 30
0.0
  0
SEQEND
  5
712
  8
DIMENSIONI
  0
POLYLINE
  5
B4
  8
DIMENSIONI
 66
     1
 10
0.0
 20
0.0
 30
0.0
  0
VERTEX
  5
476
  8
DIMENSIONI
 10
40.0
 20
2.5
 30
0.0
  0
VERTEX
  5
477
  8
DIMENSIONI
 10
40.0
 20
51.20399029326251
 30
0.0
  0
SEQEND
  5
713
  8
DIMENSIONI
  0
POLYLINE
  5
B5
  8
DIMENSIONI
 66
     1
 10
0.0
 20
0.0
 30
0.0
  0
VERTEX
  5
478
  8
DIMENSIONI
 10
-40.0
 20
49.20399029326251
 30
0.0
  0
VERTEX
  5
479
  8
DIMENSIONI
 10
-36.76393202250021
 20
48.20399029326251
 30
0.0
  0
SEQEND
  5
714
  8
DIMENSIONI
  0
POLYLINE
  5
B6
  8
DIMENSIONI
 66
     1
 10
0.0
 20
0.0
 30
0.0
  0
VERTEX
  5
47A
  8
DIMENSIONI
 10
-36.76393202250021
 20
48.20399029326251
 30
0.0
  0
VERTEX
  5
47B
  8
DIMENSIONI
 10
-36.76393202250021
 20
50.20399029326251
 30
0.0
  0
SEQEND
  5
715
  8
DIMENSIONI
  0
POLYLINE
  5
B7
  8
DIMENSIONI
 66
     1
 10
0.0
 20
0.0
 30
0.0
  0
VERTEX
  5
47C
  8
DIMENSIONI
 10
-36.76393202250021
 20
50.20399029326251
 30
0.0
  0
VERTEX
  5
47D
  8
DIMENSIONI
 10
-40.0
 20
49.20399029326251
 30
0.0
  0
SEQEND
  5
716
  8
DIMENSIONI
  0
POLYLINE
  5
B8
  8
DIMENSIONI
 66
     1
 10
0.0
 20
0.0
 30
0.0
  0
VERTEX
  5
47E
  8
DIMENSIONI
 10
40.0
 20
49.20399029326251
 30
0.0
  0
VERTEX
  5
47F
  8
DIMENSIONI
 10
36.76393202250021
 20
50.20399029326251
 30
0.0
  0
SEQEND
  5
717
  8
DIMENSIONI
  0
POLYLINE
  5
B9
  8
DIMENSIONI
 66
     1
 10
0.0
 20
0.0
 30
0.0
  0
VERTEX
  5
480
  8
DIMENSIONI
 10
36.76393202250021
 20
50.20399029326251
 30
0.0
  0
VERTEX
  5
481
  8
DIMENSIONI
 10
36.76393202250021
 20
48.20399029326251
 30
0.0
  0
SEQEND
  5
718
  8
DIMENSIONI
  0
POLYLINE
  5
BA
  8
DIMENSIONI
 66
     1
 10
0.0
 20
0.0
 30
0.0
  0
VERTEX
  5
482
  8
DIMENSIONI
 10
36.76393202250021
 20
48.20399029326251
 30
0.0
  0
VERTEX
  5
483
  8
DIMENSIONI
 10
40.0
 20
49.20399029326251
 30
0.0
  0
SEQEND
  5
719
  8
DIMENSIONI
  0
POLYLINE
  5
BB
  8
DIMENSIONI
 66
     1
 10
0.0
 20
0.0
 30
0.0
 70
     1
  0
VERTEX
  5
484
  8
DIMENSIONI
 10
-4.616519174041298
 20
45.58525742985533
 30
0.0
  0
VERTEX
  5
485
  8
DIMENSIONI
 10
-2.471976401179941
 20
45.58525742985533
 30
0.0
  0
VERTEX
  5
486
  8
DIMENSIONI
 10
-2.471976401179941
 20
45.47316303457509
 30
0.0
  0
VERTEX
  5
487
  8
DIMENSIONI
 10
-3.805309734513274
 20
41.50266155964884
 30
0.0
  0
VERTEX
  5
488
  8
DIMENSIONI
 10
-4.135693215339233
 20
41.50266155964884
 30
0.0
  0
VERTEX
  5
489
  8
DIMENSIONI
 10
-2.941002949852507
 20
45.10443147115326
 30
0.0
  0
VERTEX
  5
48A
  8
DIMENSIONI
 10
-4.041297935103245
 20
45.10443147115326
 30
0.0
  0
VERTEX
  5
48B
  8
DIMENSIONI
 10
-4.195980825958702
 20
45.09945359504707
 30
0.0
  0
VERTEX
  5
48C
  8
DIMENSIONI
 10
-4.32669616519174
 20
45.08451996672848
 30
0.0
  0
VERTEX
  5
48D
  8
DIMENSIONI
 10
-4.433443952802359
 20
45.05963058619751
 30
0.0
  0
VERTEX
  5
48E
  8
DIMENSIONI
 10
-4.51622418879056
 20
45.02478545345414
 30
0.0
  0
VERTEX
  5
48F
  8
DIMENSIONI
 10
-4.634033923303834
 20
44.94772055669899
 30
0.0
  0
VERTEX
  5
490
  8
DIMENSIONI
 10
-4.739675516224189
 20
44.85221908177273
 30
0.0
  0
VERTEX
  5
491
  8
DIMENSIONI
 10
-4.833148967551622
 20
44.73828102867539
 30
0.0
  0
VERTEX
  5
492
  8
DIMENSIONI
 10
-4.914454277286135
 20
44.60590639740695
 30
0.0
  0
VERTEX
  5
493
  8
DIMENSIONI
 10
-5.0
 20
44.63835477498807
 30
0.0
  0
SEQEND
  5
71A
  8
DIMENSIONI
  0
POLYLINE
  5
BC
  8
DIMENSIONI
 66
     1
 10
0.0
 20
0.0
 30
0.0
 70
     1
  0
VERTEX
  5
494
  8
DIMENSIONI
 10
0.4188790560471973
 20
45.58525742985533
 30
0.0
  0
VERTEX
  5
495
  8
DIMENSIONI
 10
0.1887905604719762
 20
45.08378250360164
 30
0.0
  0
VERTEX
  5
496
  8
DIMENSIONI
 10
-1.014749262536873
 20
45.08378250360164
 30
0.0
  0
VERTEX
  5
497
  8
DIMENSIONI
 10
-1.277286135693216
 20
44.54690934725946
 30
0.0
  0
VERTEX
  5
498
  8
DIMENSIONI
 10
-1.086928466076696
 20
44.51266340330665
 30
0.0
  0
VERTEX
  5
499
  8
DIMENSIONI
 10
-0.9067109144542778
 20
44.46744769534205
 30
0.0
  0
VERTEX
  5
49A
  8
DIMENSIONI
 10
-0.7366334808259591
 20
44.41126222336564
 30
0.0
  0
VERTEX
  5
49B
  8
DIMENSIONI
 10
-0.5766961651917408
 20
44.34410698737744
 30
0.0
  0
VERTEX
  5
49C
  8
DIMENSIONI
 10
-0.4268989675516228
 20
44.26598198737745
 30
0.0
  0
VERTEX
  5
49D
  8
DIMENSIONI
 10
-0.287241887905605
 20
44.17688722336565
 30
0.0
  0
VERTEX
  5
49E
  8
DIMENSIONI
 10
-0.1577249262536876
 20
44.07682269534205
 30
0.0
  0
VERTEX
  5
49F
  8
DIMENSIONI
 10
-0.0383480825958704
 20
43.96578840330665
 30
0.0
  0
VERTEX
  5
4A0
  8
DIMENSIONI
 10
0.053604351032448
 20
43.86328102867539
 30
0.0
  0
VERTEX
  5
4A1
  8
DIMENSIONI
 10
0.1332964601769907
 20
43.75634887528305
 30
0.0
  0
VERTEX
  5
4A2
  8
DIMENSIONI
 10
0.2007282448377576
 20
43.64499194312967
 30
0.0
  0
VERTEX
  5
4A3
  8
DIMENSIONI
 10
0.2558997050147487
 20
43.52921023221521
 30
0.0
  0
VERTEX
  5
4A4
  8
DIMENSIONI
 10
0.298810840707964
 20
43.4090037425397
 30
0.0
  0
VERTEX
  5
4A5
  8
DIMENSIONI
 10
0.3294616519174036
 20
43.28437247410312
 30
0.0
  0
VERTEX
  5
4A6
  8
DIMENSIONI
 10
0.3478521386430673
 20
43.15531642690549
 30
0.0
  0
VERTEX
  5
4A7
  8
DIMENSIONI
 10
0.3539823008849552
 20
43.02183560094677
 30
0.0
  0
VERTEX
  5
4A8
  8
DIMENSIONI
 10
0.3459623893805305
 20
42.8669683443096
 30
0.0
  0
VERTEX
  5
4A9
  8
DIMENSIONI
 10
0.3219026548672562
 20
42.71800079268719
 30
0.0
  0
VERTEX
  5
4AA
  8
DIMENSIONI
 10
0.2818030973451324
 20
42.57493294607951
 30
0.0
  0
VERTEX
  5
4AB
  8
DIMENSIONI
 10
0.2256637168141589
 20
42.43776480448659
 30
0.0
  0
VERTEX
  5
4AC
  8
DIMENSIONI
 10
0.1573561946902652
 20
42.30852439150725
 30
0.0
  0
VERTEX
  5
4AD
  8
DIMENSIONI
 10
0.0807522123893802
 20
42.18923973074028
 30
0.0
  0
VERTEX
  5
4AE
  8
DIMENSIONI
 10
-0.0041482300884959
 20
42.07991082218571
 30
0.0
  0
VERTEX
  5
4AF
  8
DIMENSIONI
 10
-0.097345132743363
 20
41.98053766584353
 30
0.0
  0
VERTEX
  5
4B0
  8
DIMENSIONI
 10
-0.1974557522123897
 20
41.89075153015031
 30
0.0
  0
VERTEX
  5
4B1
  8
DIMENSIONI
 10
-0.3030973451327437
 20
41.81018368354264
 30
0.0
  0
VERTEX
  5
4B2
  8
DIMENSIONI
 10
-0.4142699115044252
 20
41.73883412602051
 30
0.0
  0
VERTEX
  5
4B3
  8
DIMENSIONI
 10
-0.530973451327434
 20
41.67670285758394
 30
0.0
  0
VERTEX
  5
4B4
  8
DIMENSIONI
 10
-0.7016961651917407
 20
41.60572203162523
 30
0.0
  0
VERTEX
  5
4B5
  8
DIMENSIONI
 10
-0.8746312684365785
 20
41.55502144165473
 30
0.0
  0
VERTEX
  5
4B6
  8
DIMENSIONI
 10
-1.049778761061947
 20
41.52460108767243
 30
0.0
  0
VERTEX
  5
4B7
  8
DIMENSIONI
 10
-1.227138643067847
 20
41.51446096967833
 30
0.0
  0
VERTEX
  5
4B8
  8
DIMENSIONI
 10
-1.394819321533924
 20
41.52211214961933
 30
0.0
  0
VERTEX
  5
4B9
  8
DIMENSIONI
 10
-1.537979351032448
 20
41.54506568944235
 30
0.0
  0
VERTEX
  5
4BA
  8
DIMENSIONI
 10
-1.656618731563422
 20
41.58332158914736
 30
0.0
  0
VERTEX
  5
4BB
  8
DIMENSIONI
 10
-1.750737463126844
 20
41.63687984873438
 30
0.0
  0
VERTEX
  5
4BC
  8
DIMENSIONI
 10
-1.822363569321534
 20
41.69965639740694
 30
0.0
  0
VERTEX
  5
4BD
  8
DIMENSIONI
 10
-1.873525073746313
 20
41.7655671643686
 30
0.0
  0
VERTEX
  5
4BE
  8
DIMENSIONI
 10
-1.90422197640118
 20
41.83461214961933
 30
0.0
  0
VERTEX
  5
4BF
  8
DIMENSIONI
 10
-1.914454277286136
 20
41.90679135315916
 30
0.0
  0
VERTEX
  5
4C0
  8
DIMENSIONI
 10
-1.910213864306785
 20
41.94689091068128
 30
0.0
  0
VERTEX
  5
4C1
  8
DIMENSIONI
 10
-1.897492625368732
 20
41.98459371304116
 30
0.0
  0
VERTEX
  5
4C2
  8
DIMENSIONI
 10
-1.876290560471977
 20
42.01989976023881
 30
0.0
  0
VERTEX
  5
4C3
  8
DIMENSIONI
 10
-1.846607669616519
 20
42.05280905227421
 30
0.0
  0
VERTEX
  5
4C4
  8
DIMENSIONI
 10
-1.81047197640118
 20
42.0805561024217
 30
0.0
  0
VERTEX
  5
4C5
  8
DIMENSIONI
 10
-1.769911504424779
 20
42.10037542395563
 30
0.0
  0
VERTEX
  5
4C6
  8
DIMENSIONI
 10
-1.724926253687316
 20
42.11226701687598
 30
0.0
  0
VERTEX
  5
4C7
  8
DIMENSIONI
 10
-1.675516224188791
 20
42.11623088118276
 30
0.0
  0
VERTEX
  5
4C8
  8
DIMENSIONI
 10
-1.603613569321534
 20
42.11033117616801
 30
0.0
  0
VERTEX
  5
4C9
  8
DIMENSIONI
 10
-1.541297935103245
 20
42.09263206112376
 30
0.0
  0
VERTEX
  5
4CA
  8
DIMENSIONI
 10
-1.463495575221239
 20
42.05059666289367
 30
0.0
  0
VERTEX
  5
4CB
  8
DIMENSIONI
 10
-1.345132743362832
 20
41.9716881083214
 30
0.0
  0
VERTEX
  5
4CC
  8
DIMENSIONI
 10
-1.234144542772862
 20
41.90457896377863
 30
0.0
  0
VERTEX
  5
4CD
  8
DIMENSIONI
 10
-1.122418879056047
 20
41.85664386053379
 30
0.0
  0
VERTEX
  5
4CE
  8
DIMENSIONI
 10
-1.00995575221239
 20
41.82788279858688
 30
0.0
  0
VERTEX
  5
4CF
  8
DIMENSIONI
 10
-0.8967551622418883
 20
41.81829577793792
 30
0.0
  0
VERTEX
  5
4D0
  8
DIMENSIONI
 10
-0.8117855825958706
 20
41.82237487085828
 30
0.0
  0
VERTEX
  5
4D1
  8
DIMENSIONI
 10
-0.7294432153392334
 20
41.83461214961934
 30
0.0
  0
VERTEX
  5
4D2
  8
DIMENSIONI
 10
-0.6497280604719766
 20
41.85500761422111
 30
0.0
  0
VERTEX
  5
4D3
  8
DIMENSIONI
 10
-0.5726401179941006
 20
41.88356126466358
 30
0.0
  0
VERTEX
  5
4D4
  8
DIMENSIONI
 10
-0.4981793879056051
 20
41.92027310094677
 30
0.0
  0
VERTEX
  5
4D5
  8
DIMENSIONI
 10
-0.4263458702064901
 20
41.96514312307067
 30
0.0
  0
VERTEX
  5
4D6
  8
DIMENSIONI
 10
-0.3571395648967555
 20
42.01817133103527
 30
0.0
  0
VERTEX
  5
4D7
  8
DIMENSIONI
 10
-0.2905604719764014
 20
42.07935772484058
 30
0.0
  0
VERTEX
  5
4D8
  8
DIMENSIONI
 10
-0.2293740781710918
 20
42.14639773221521
 30
0.0
  0
VERTEX
  5
4D9
  8
DIMENSIONI
 10
-0.17634587020649
 20
42.21698678088777
 30
0.0
  0
VERTEX
  5
4DA
  8
DIMENSIONI
 10
-0.1314758480825962
 20
42.29112487085827
 30
0.0
  0
VERTEX
  5
4DB
  8
DIMENSIONI
 10
-0.0947640117994104
 20
42.36881200212671
 30
0.0
  0
VERTEX
  5
4DC
  8
DIMENSIONI
 10
-0.0662103613569325
 20
42.45004817469308
 30
0.0
  0
VERTEX
  5
4DD
  8
DIMENSIONI
 10
-0.0458148967551626
 20
42.53483338855739
 30
0.0
  0
VERTEX
  5
4DE
  8
DIMENSIONI
 10
-0.0335776179941007
 20
42.62316764371963
 30
0.0
  0
VERTEX
  5
4DF
  8
DIMENSIONI
 10
-0.0294985250737467
 20
42.71505094017981
 30
0.0
  0
VERTEX
  5
4E0
  8
DIMENSIONI
 10
-0.044063421828909
 20
42.89342483398512
 30
0.0
  0
VERTEX
  5
4E1
  8
DIMENSIONI
 10
-0.0877581120943957
 20
43.06571465699398
 30
0.0
  0
VERTEX
  5
4E2
  8
DIMENSIONI
 10
-0.1605825958702068
 20
43.23192040920635
 30
0.0
  0
VERTEX
  5
4E3
  8
DIMENSIONI
 10
-0.2625368731563424
 20
43.39204209062228
 30
0.0
  0
VERTEX
  5
4E4
  8
DIMENSIONI
 10
-0.3901179941002952
 20
43.54017999622701
 30
0.0
  0
VERTEX
  5
4E5
  8
DIMENSIONI
 10
-0.5398230088495578
 20
43.67043442100577
 30
0.0
  0
VERTEX
  5
4E6
  8
DIMENSIONI
 10
-0.7116519174041301
 20
43.78280536495858
 30
0.0
  0
VERTEX
  5
4E7
  8
DIMENSIONI
 10
-0.905604719764012
 20
43.87729282808542
 30
0.0
  0
VERTEX
  5
4E8
  8
DIMENSIONI
 10
-1.080936578171092
 20
43.93665860979632
 30
0.0
  0
VERTEX
  5
4E9
  8
DIMENSIONI
 10
-1.285398230088496
 20
43.98201259209721
 30
0.0
  0
VERTEX
  5
4EA
  8
DIMENSIONI
 10
-1.518989675516225
 20
44.01335477498807
 30
0.0
  0
VERTEX
  5
4EB
  8
DIMENSIONI
 10
-1.781710914454278
 20
44.03068515846889
 30
0.0
  0
VERTEX
  5
4EC
  8
DIMENSIONI
 10
-1.014749262536873
 20
45.58525742985533
 30
0.0
  0
SEQEND
  5
71B
  8
DIMENSIONI
  0
POLYLINE
  5
BD
  8
DIMENSIONI
 66
     1
 10
0.0
 20
0.0
 30
0.0
 70
     1
  0
VERTEX
  5
4ED
  8
DIMENSIONI
 10
1.572271386430678
 20
42.157528816286
 30
0.0
  0
VERTEX
  5
4EE
  8
DIMENSIONI
 10
1.638827433628319
 20
42.15153692838039
 30
0.0
  0
VERTEX
  5
4EF
  8
DIMENSIONI
 10
1.699852507374631
 20
42.13356126466358
 30
0.0
  0
VERTEX
  5
4F0
  8
DIMENSIONI
 10
1.755346607669616
 20
42.10360182513556
 30
0.0
  0
VERTEX
  5
4F1
  8
DIMENSIONI
 10
1.805309734513274
 20
42.06165860979632
 30
0.0
  0
VERTEX
  5
4F2
  8
DIMENSIONI
 10
1.846607669616519
 20
42.01123456849839
 30
0.0
  0
VERTEX
  5
4F3
  8
DIMENSIONI
 10
1.876106194690265
 20
41.95583265109426
 30
0.0
  0
VERTEX
  5
4F4
  8
DIMENSIONI
 10
1.893805309734513
 20
41.89545285758393
 30
0.0
  0
VERTEX
  5
4F5
  8
DIMENSIONI
 10
1.899705014749262
 20
41.83009518796742
 30
0.0
  0
VERTEX
  5
4F6
  8
DIMENSIONI
 10
1.893713126843658
 20
41.7647375183509
 30
0.0
  0
VERTEX
  5
4F7
  8
DIMENSIONI
 10
1.875737463126844
 20
41.70435772484058
 30
0.0
  0
VERTEX
  5
4F8
  8
DIMENSIONI
 10
1.84577802359882
 20
41.64895580743645
 30
0.0
  0
VERTEX
  5
4F9
  8
DIMENSIONI
 10
1.803834808259587
 20
41.59853176613851
 30
0.0
  0
VERTEX
  5
4FA
  8
DIMENSIONI
 10
1.753410766961652
 20
41.55658855079928
 30
0.0
  0
VERTEX
  5
4FB
  8
DIMENSIONI
 10
1.698008849557522
 20
41.52662911127126
 30
0.0
  0
VERTEX
  5
4FC
  8
DIMENSIONI
 10
1.637629056047198
 20
41.50865344755444
 30
0.0
  0
VERTEX
  5
4FD
  8
DIMENSIONI
 10
1.572271386430678
 20
41.50266155964884
 30
0.0
  0
VERTEX
  5
4FE
  8
DIMENSIONI
 10
1.506913716814159
 20
41.50865344755444
 30
0.0
  0
VERTEX
  5
4FF
  8
DIMENSIONI
 10
1.446533923303834
 20
41.52662911127126
 30
0.0
  0
VERTEX
  5
500
  8
DIMENSIONI
 10
1.391132005899705
 20
41.55658855079928
 30
0.0
  0
VERTEX
  5
501
  8
DIMENSIONI
 10
1.34070796460177
 20
41.59853176613851
 30
0.0
  0
VERTEX
  5
502
  8
DIMENSIONI
 10
1.298764749262537
 20
41.64895580743645
 30
0.0
  0
VERTEX
  5
503
  8
DIMENSIONI
 10
1.268805309734513
 20
41.70435772484058
 30
0.0
  0
VERTEX
  5
504
  8
DIMENSIONI
 10
1.250829646017699
 20
41.7647375183509
 30
0.0
  0
VERTEX
  5
505
  8
DIMENSIONI
 10
1.244837758112094
 20
41.83009518796742
 30
0.0
  0
VERTEX
  5
506
  8
DIMENSIONI
 10
1.250829646017699
 20
41.89665123516505
 30
0.0
  0
VERTEX
  5
507
  8
DIMENSIONI
 10
1.268805309734513
 20
41.95767630891137
 30
0.0
  0
VERTEX
  5
508
  8
DIMENSIONI
 10
1.298764749262537
 20
42.01317040920635
 30
0.0
  0
VERTEX
  5
509
  8
DIMENSIONI
 10
1.34070796460177
 20
42.06313353605002
 30
0.0
  0
VERTEX
  5
50A
  8
DIMENSIONI
 10
1.391132005899705
 20
42.10443147115326
 30
0.0
  0
VERTEX
  5
50B
  8
DIMENSIONI
 10
1.446533923303834
 20
42.133929996227
 30
0.0
  0
VERTEX
  5
50C
  8
DIMENSIONI
 10
1.506913716814159
 20
42.15162911127126
 30
0.0
  0
SEQEND
  5
71C
  8
DIMENSIONI
  0
POLYLINE
  5
BE
  8
DIMENSIONI
 66
     1
 10
0.0
 20
0.0
 30
0.0
 70
     1
  0
VERTEX
  5
50D
  8
DIMENSIONI
 10
3.486725663716814
 20
43.6000066923922
 30
0.0
  0
VERTEX
  5
50E
  8
DIMENSIONI
 10
3.270372418879056
 20
43.78510993722996
 30
0.0
  0
VERTEX
  5
50F
  8
DIMENSIONI
 10
3.096238938053097
 20
43.95103914076978
 30
0.0
  0
VERTEX
  5
510
  8
DIMENSIONI
 10
2.964325221238938
 20
44.09779430301167
 30
0.0
  0
VERTEX
  5
511
  8
DIMENSIONI
 10
2.874631268436578
 20
44.22537542395562
 30
0.0
  0
VERTEX
  5
512
  8
DIMENSIONI
 10
2.814620206489676
 20
44.34447571894087
 30
0.0
  0
VERTEX
  5
513
  8
DIMENSIONI
 10
2.771755162241888
 20
44.46578840330665
 30
0.0
  0
VERTEX
  5
514
  8
DIMENSIONI
 10
2.746036135693215
 20
44.58931347705297
 30
0.0
  0
VERTEX
  5
515
  8
DIMENSIONI
 10
2.737463126843658
 20
44.71505094017981
 30
0.0
  0
VERTEX
  5
516
  8
DIMENSIONI
 10
2.742164454277286
 20
44.81071373516505
 30
0.0
  0
VERTEX
  5
517
  8
DIMENSIONI
 10
2.756268436578171
 20
44.90301185463409
 30
0.0
  0
VERTEX
  5
518
  8
DIMENSIONI
 10
2.779775073746312
 20
44.99194529858688
 30
0.0
  0
VERTEX
  5
519
  8
DIMENSIONI
 10
2.812684365781711
 20
45.07751406702347
 30
0.0
  0
VERTEX
  5
51A
  8
DIMENSIONI
 10
2.854996312684366
 20
45.15971815994382
 30
0.0
  0
VERTEX
  5
51B
  8
DIMENSIONI
 10
2.906710914454278
 20
45.23855757734795
 30
0.0
  0
VERTEX
  5
51C
  8
DIMENSIONI
 10
2.967828171091446
 20
45.31403231923585
 30
0.0
  0
VERTEX
  5
51D
  8
DIMENSIONI
 10
3.03834808259587
 20
45.38614238560753
 30
0.0
  0
VERTEX
  5
51E
  8
DIMENSIONI
 10
3.116657448377581
 20
45.45216838118275
 30
0.0
  0
VERTEX
  5
51F
  8
DIMENSIONI
 10
3.201143067846608
 20
45.50939091068128
 30
0.0
  0
VERTEX
  5
520
  8
DIMENSIONI
 10
3.29180494100295
 20
45.55780997410311
 30
0.0
  0
VERTEX
  5
521
  8
DIMENSIONI
 10
3.388643067846608
 20
45.59742557144824
 30
0.0
  0
VERTEX
  5
522
  8
DIMENSIONI
 10
3.491657448377581
 20
45.62823770271667
 30
0.0
  0
VERTEX
  5
523
  8
DIMENSIONI
 10
3.60084808259587
 20
45.65024636790842
 30
0.0
  0
VERTEX
  5
524
  8
DIMENSIONI
 10
3.716214970501475
 20
45.66345156702347
 30
0.0
  0
VERTEX
  5
525
  8
DIMENSIONI
 10
3.837758112094395
 20
45.66785330006181
 30
0.0
  0
VERTEX
  5
526
  8
DIMENSIONI
 10
3.95575221238938
 20
45.66375116141874
 30
0.0
  0
VERTEX
  5
527
  8
DIMENSIONI
 10
4.067846607669616
 20
45.65144474548954
 30
0.0
  0
VERTEX
  5
528
  8
DIMENSIONI
 10
4.174041297935103
 20
45.63093405227421
 30
0.0
  0
VERTEX
  5
529
  8
DIMENSIONI
 10
4.274336283185841
 20
45.60221908177273
 30
0.0
  0
VERTEX
  5
52A
  8
DIMENSIONI
 10
4.368731563421829
 20
45.56529983398512
 30
0.0
  0
VERTEX
  5
52B
  8
DIMENSIONI
 10
4.457227138643068
 20
45.52017630891137
 30
0.0
  0
VERTEX
  5
52C
  8
DIMENSIONI
 10
4.539823008849557
 20
45.46684850655149
 30
0.0
  0
VERTEX
  5
52D
  8
DIMENSIONI
 10
4.616519174041298
 20
45.40531642690547
 30
0.0
  0
VERTEX
  5
52E
  8
DIMENSIONI
 10
4.685656342182891
 20
45.33852992248069
 30
0.0
  0
VERTEX
  5
52F
  8
DIMENSIONI
 10
4.745575221238938
 20
45.26943884578453
 30
0.0
  0
VERTEX
  5
530
  8
DIMENSIONI
 10
4.796275811209439
 20
45.19804319681698
 30
0.0
  0
VERTEX
  5
531
  8
DIMENSIONI
 10
4.837758112094395
 20
45.12434297557805
 30
0.0
  0
VERTEX
  5
532
  8
DIMENSIONI
 10
4.870022123893804
 20
45.04833818206772
 30
0.0
  0
VERTEX
  5
533
  8
DIMENSIONI
 10
4.89306784660767
 20
44.970028816286
 30
0.0
  0
VERTEX
  5
534
  8
DIMENSIONI
 10
4.906895280235989
 20
44.88941487823291
 30
0.0
  0
VERTEX
  5
535
  8
DIMENSIONI
 10
4.911504424778761
 20
44.80649636790842
 30
0.0
  0
VERTEX
  5
536
  8
DIMENSIONI
 10
4.901548672566372
 20
44.69384887528305
 30
0.0
  0
VERTEX
  5
537
  8
DIMENSIONI
 10
4.871681415929204
 20
44.58009518796742
 30
0.0
  0
VERTEX
  5
538
  8
DIMENSIONI
 10
4.821902654867256
 20
44.46523530596152
 30
0.0
  0
VERTEX
  5
539
  8
DIMENSIONI
 10
4.752212389380531
 20
44.34926922926535
 30
0.0
  0
VERTEX
  5
53A
  8
DIMENSIONI
 10
4.65099557522124
 20
44.22758781333615
 30
0.0
  0
VERTEX
  5
53B
  8
DIMENSIONI
 10
4.506637168141593
 20
44.09558191363114
 30
0.0
  0
VERTEX
  5
53C
  8
DIMENSIONI
 10
4.319137168141593
 20
43.95325153015031
 30
0.0
  0
VERTEX
  5
53D
  8
DIMENSIONI
 10
4.08849557522124
 20
43.80059666289367
 30
0.0
  0
VERTEX
  5
53E
  8
DIMENSIONI
 10
4.326143067846608
 20
43.61069990773143
 30
0.0
  0
VERTEX
  5
53F
  8
DIMENSIONI
 10
4.519911504424778
 20
43.44218958324765
 30
0.0
  0
VERTEX
  5
540
  8
DIMENSIONI
 10
4.669800884955752
 20
43.29506568944235
 30
0.0
  0
VERTEX
  5
541
  8
DIMENSIONI
 10
4.775811209439528
 20
43.1693282263155
 30
0.0
  0
VERTEX
  5
542
  8
DIMENSIONI
 10
4.873893805309734
 20
43.01685772484057
 30
0.0
  0
VERTEX
  5
543
  8
DIMENSIONI
 10
4.943952802359882
 20
42.860331176168
 30
0.0
  0
VERTEX
  5
544
  8
DIMENSIONI
 10
4.98598820058997
 20
42.69974858029779
 30
0.0
  0
VERTEX
  5
545
  8
DIMENSIONI
 10
5.0
 20
42.53510993722995
 30
0.0
  0
VERTEX
  5
546
  8
DIMENSIONI
 10
4.994976032448377
 20
42.43156550507656
 30
0.0
  0
VERTEX
  5
547
  8
DIMENSIONI
 10
4.97990412979351
 20
42.33184666289367
 30
0.0
  0
VERTEX
  5
548
  8
DIMENSIONI
 10
4.954784292035398
 20
42.23595341068128
 30
0.0
  0
VERTEX
  5
549
  8
DIMENSIONI
 10
4.919616519174041
 20
42.14388574843939
 30
0.0
  0
VERTEX
  5
54A
  8
DIMENSIONI
 10
4.874400811209439
 20
42.05564367616801
 30
0.0
  0
VERTEX
  5
54B
  8
DIMENSIONI
 10
4.819137168141593
 20
41.97122719386712
 30
0.0
  0
VERTEX
  5
54C
  8
DIMENSIONI
 10
4.753825589970501
 20
41.89063630153674
 30
0.0
  0
VERTEX
  5
54D
  8
DIMENSIONI
 10
4.678466076696165
 20
41.81387099917686
 30
0.0
  0
VERTEX
  5
54E
  8
DIMENSIONI
 10
4.594948377581122
 20
41.74369677351314
 30
0.0
  0
VERTEX
  5
54F
  8
DIMENSIONI
 10
4.505162241887906
 20
41.68287911127126
 30
0.0
  0
VERTEX
  5
550
  8
DIMENSIONI
 10
4.409107669616519
 20
41.63141801245119
 30
0.0
  0
VERTEX
  5
551
  8
DIMENSIONI
 10
4.306784660766962
 20
41.58931347705297
 30
0.0
  0
VERTEX
  5
552
  8
DIMENSIONI
 10
4.198193215339234
 20
41.55656550507656
 30
0.0
  0
VERTEX
  5
553
  8
DIMENSIONI
 10
4.083333333333334
 20
41.53317409652199
 30
0.0
  0
VERTEX
  5
554
  8
DIMENSIONI
 10
3.962205014749263
 20
41.51913925138925
 30
0.0
  0
VERTEX
  5
555
  8
DIMENSIONI
 10
3.834808259587021
 20
41.51446096967833
 30
0.0
  0
VERTEX
  5
556
  8
DIMENSIONI
 10
3.696395648967552
 20
41.52003803457509
 30
0.0
  0
VERTEX
  5
557
  8
DIMENSIONI
 10
3.565818584070796
 20
41.53676922926535
 30
0.0
  0
VERTEX
  5
558
  8
DIMENSIONI
 10
3.443077064896755
 20
41.56465455374913
 30
0.0
  0
VERTEX
  5
559
  8
DIMENSIONI
 10
3.328171091445427
 20
41.60369400802642
 30
0.0
  0
VERTEX
  5
55A
  8
DIMENSIONI
 10
3.221100663716814
 20
41.65388759209721
 30
0.0
  0
VERTEX
  5
55B
  8
DIMENSIONI
 10
3.121865781710914
 20
41.71523530596152
 30
0.0
  0
VERTEX
  5
55C
  8
DIMENSIONI
 10
3.030466445427729
 20
41.78773714961934
 30
0.0
  0
VERTEX
  5
55D
  8
DIMENSIONI
 10
2.946902654867257
 20
41.87139312307067
 30
0.0
  0
VERTEX
  5
55E
  8
DIMENSIONI
 10
2.835914454277286
 20
42.01777955374914
 30
0.0
  0
VERTEX
  5
55F
  8
DIMENSIONI
 10
2.792311946902655
 20
42.09346170714146
 30
0.0
  0
VERTEX
  5
560
  8
DIMENSIONI
 10
2.756637168141593
 20
42.17080315256919
 30
0.0
  0
VERTEX
  5
561
  8
DIMENSIONI
 10
2.728890117994101
 20
42.24980389003232
 30
0.0
  0
VERTEX
  5
562
  8
DIMENSIONI
 10
2.709070796460177
 20
42.33046391953084
 30
0.0
  0
VERTEX
  5
563
  8
DIMENSIONI
 10
2.697179203539823
 20
42.41278324106477
 30
0.0
  0
VERTEX
  5
564
  8
DIMENSIONI
 10
2.693215339233038
 20
42.49676185463409
 30
0.0
  0
VERTEX
  5
565
  8
DIMENSIONI
 10
2.704369469026549
 20
42.62922866879337
 30
0.0
  0
VERTEX
  5
566
  8
DIMENSIONI
 10
2.73783185840708
 20
42.76114238560753
 30
0.0
  0
VERTEX
  5
567
  8
DIMENSIONI
 10
2.793602507374631
 20
42.89250300507656
 30
0.0
  0
VERTEX
  5
568
  8
DIMENSIONI
 10
2.871681415929204
 20
43.02331052720046
 30
0.0
  0
VERTEX
  5
569
  8
DIMENSIONI
 10
2.977046460176991
 20
43.15725226761344
 30
0.0
  0
VERTEX
  5
56A
  8
DIMENSIONI
 10
3.114675516224189
 20
43.29801554194972
 30
0.0
  0
VERTEX
  5
56B
  8
DIMENSIONI
 10
3.284568584070796
 20
43.44560035020932
 30
0.0
  0
SEQEND
  5
71D
  8
DIMENSIONI
  0
POLYLINE
  5
BF
  8
DIMENSIONI
 66
     1
 10
0.0
 20
0.0
 30
0.0
 70
     1
  0
VERTEX
  5
56C
  8
DIMENSIONI
 10
3.949852507374631
 20
43.91564091068128
 30
0.0
  0
VERTEX
  5
56D
  8
DIMENSIONI
 10
4.110619469026549
 20
44.06654430301167
 30
0.0
  0
VERTEX
  5
56E
  8
DIMENSIONI
 10
4.238938053097344
 20
44.20067040920635
 30
0.0
  0
VERTEX
  5
56F
  8
DIMENSIONI
 10
4.334808259587021
 20
44.31801922926535
 30
0.0
  0
VERTEX
  5
570
  8
DIMENSIONI
 10
4.398230088495575
 20
44.41859076318866
 30
0.0
  0
VERTEX
  5
571
  8
DIMENSIONI
 10
4.43952802359882
 20
44.51381568944235
 30
0.0
  0
VERTEX
  5
572
  8
DIMENSIONI
 10
4.469026548672566
 20
44.61512468649249
 30
0.0
  0
VERTEX
  5
573
  8
DIMENSIONI
 10
4.486725663716815
 20
44.7225177543391
 30
0.0
  0
VERTEX
  5
574
  8
DIMENSIONI
 10
4.492625368731564
 20
44.83599489298217
 30
0.0
  0
VERTEX
  5
575
  8
DIMENSIONI
 10
4.48174778761062
 20
44.98247350655149
 30
0.0
  0
VERTEX
  5
576
  8
DIMENSIONI
 10
4.449115044247788
 20
45.11217483398512
 30
0.0
  0
VERTEX
  5
577
  8
DIMENSIONI
 10
4.394727138643068
 20
45.22509887528305
 30
0.0
  0
VERTEX
  5
578
  8
DIMENSIONI
 10
4.31858407079646
 20
45.3212456304453
 30
0.0
  0
VERTEX
  5
579
  8
DIMENSIONI
 10
4.223635693215339
 20
45.39803397852789
 30
0.0
  0
VERTEX
  5
57A
  8
DIMENSIONI
 10
4.11283185840708
 20
45.45288279858689
 30
0.0
  0
VERTEX
  5
57B
  8
DIMENSIONI
 10
3.986172566371681
 20
45.48579209062228
 30
0.0
  0
VERTEX
  5
57C
  8
DIMENSIONI
 10
3.843657817109145
 20
45.49676185463409
 30
0.0
  0
VERTEX
  5
57D
  8
DIMENSIONI
 10
3.700221238938053
 20
45.48588427351315
 30
0.0
  0
VERTEX
  5
57E
  8
DIMENSIONI
 10
3.570796460176991
 20
45.45325153015031
 30
0.0
  0
VERTEX
  5
57F
  8
DIMENSIONI
 10
3.455383480825959
 20
45.3988636245456
 30
0.0
  0
VERTEX
  5
580
  8
DIMENSIONI
 10
3.353982300884956
 20
45.32272055669898
 30
0.0
  0
VERTEX
  5
581
  8
DIMENSIONI
 10
3.271386430678466
 20
45.23201259209721
 30
0.0
  0
VERTEX
  5
582
  8
DIMENSIONI
 10
3.212389380530974
 20
45.133929996227
 30
0.0
  0
VERTEX
  5
583
  8
DIMENSIONI
 10
3.176991150442478
 20
45.02847276908836
 30
0.0
  0
VERTEX
  5
584
  8
DIMENSIONI
 10
3.165191740412979
 20
44.91564091068128
 30
0.0
  0
VERTEX
  5
585
  8
DIMENSIONI
 10
3.170077433628319
 20
44.83894474548954
 30
0.0
  0
VERTEX
  5
586
  8
DIMENSIONI
 10
3.184734513274337
 20
44.76224858029781
 30
0.0
  0
VERTEX
  5
587
  8
DIMENSIONI
 10
3.209162979351032
 20
44.68555241510607
 30
0.0
  0
VERTEX
  5
588
  8
DIMENSIONI
 10
3.243362831858407
 20
44.60885624991433
 30
0.0
  0
VERTEX
  5
589
  8
DIMENSIONI
 10
3.286596607669617
 20
44.53308191363114
 30
0.0
  0
VERTEX
  5
58A
  8
DIMENSIONI
 10
3.338126843657817
 20
44.45915123516507
 30
0.0
  0
VERTEX
  5
58B
  8
DIMENSIONI
 10
3.466076696165192
 20
44.31682085168423
 30
0.0
  0
SEQEND
  5
71E
  8
DIMENSIONI
  0
POLYLINE
  5
C0
  8
DIMENSIONI
 66
     1
 10
0.0
 20
0.0
 30
0.0
 70
     1
  0
VERTEX
  5
58C
  8
DIMENSIONI
 10
3.625368731563422
 20
43.48791229711196
 30
0.0
  0
VERTEX
  5
58D
  8
DIMENSIONI
 10
3.510877581120944
 20
43.38236288708246
 30
0.0
  0
VERTEX
  5
58E
  8
DIMENSIONI
 10
3.412241887905605
 20
43.27220433251019
 30
0.0
  0
VERTEX
  5
58F
  8
DIMENSIONI
 10
3.329461651917404
 20
43.15743663339514
 30
0.0
  0
VERTEX
  5
590
  8
DIMENSIONI
 10
3.262536873156342
 20
43.03805978973733
 30
0.0
  0
VERTEX
  5
591
  8
DIMENSIONI
 10
3.210914454277287
 20
42.91388943575503
 30
0.0
  0
VERTEX
  5
592
  8
DIMENSIONI
 10
3.174041297935104
 20
42.78474120566653
 30
0.0
  0
VERTEX
  5
593
  8
DIMENSIONI
 10
3.151917404129794
 20
42.65061509947184
 30
0.0
  0
VERTEX
  5
594
  8
DIMENSIONI
 10
3.144542772861357
 20
42.51151111717096
 30
0.0
  0
VERTEX
  5
595
  8
DIMENSIONI
 10
3.157540560471976
 20
42.33074046820341
 30
0.0
  0
VERTEX
  5
596
  8
DIMENSIONI
 10
3.196533923303835
 20
42.16895949475208
 30
0.0
  0
VERTEX
  5
597
  8
DIMENSIONI
 10
3.225778945427729
 20
42.095190136345
 30
0.0
  0
VERTEX
  5
598
  8
DIMENSIONI
 10
3.261522861356932
 20
42.02616819681698
 30
0.0
  0
VERTEX
  5
599
  8
DIMENSIONI
 10
3.303765671091445
 20
41.96189367616801
 30
0.0
  0
VERTEX
  5
59A
  8
DIMENSIONI
 10
3.352507374631268
 20
41.9023665743981
 30
0.0
  0
VERTEX
  5
59B
  8
DIMENSIONI
 10
3.406273045722714
 20
41.84878526908837
 30
0.0
  0
VERTEX
  5
59C
  8
DIMENSIONI
 10
3.463587758112094
 20
41.80234813781993
 30
0.0
  0
VERTEX
  5
59D
  8
DIMENSIONI
 10
3.52445151179941
 20
41.76305518059279
 30
0.0
  0
VERTEX
  5
59E
  8
DIMENSIONI
 10
3.588864306784661
 20
41.73090639740695
 30
0.0
  0
VERTEX
  5
59F
  8
DIMENSIONI
 10
3.656826143067846
 20
41.70590178826241
 30
0.0
  0
VERTEX
  5
5A0
  8
DIMENSIONI
 10
3.728337020648968
 20
41.68804135315916
 30
0.0
  0
VERTEX
  5
5A1
  8
DIMENSIONI
 10
3.882005899705015
 20
41.67375300507656
 30
0.0
  0
VERTEX
  5
5A2
  8
DIMENSIONI
 10
4.033370206489676
 20
41.68499931776093
 30
0.0
  0
VERTEX
  5
5A3
  8
DIMENSIONI
 10
4.168879056047198
 20
41.71873825581402
 30
0.0
  0
VERTEX
  5
5A4
  8
DIMENSIONI
 10
4.288532448377581
 20
41.77496981923586
 30
0.0
  0
VERTEX
  5
5A5
  8
DIMENSIONI
 10
4.392330383480826
 20
41.85369400802642
 30
0.0
  0
VERTEX
  5
5A6
  8
DIMENSIONI
 10
4.476216814159292
 20
41.94845801982582
 30
0.0
  0
VERTEX
  5
5A7
  8
DIMENSIONI
 10
4.536135693215339
 20
42.0528090522742
 30
0.0
  0
VERTEX
  5
5A8
  8
DIMENSIONI
 10
4.572087020648968
 20
42.16674710537155
 30
0.0
  0
VERTEX
  5
5A9
  8
DIMENSIONI
 10
4.584070796460177
 20
42.29027217911786
 30
0.0
  0
VERTEX
  5
5AA
  8
DIMENSIONI
 10
4.577064896755163
 20
42.39370138265768
 30
0.0
  0
VERTEX
  5
5AB
  8
DIMENSIONI
 10
4.556047197640118
 20
42.49159961274618
 30
0.0
  0
VERTEX
  5
5AC
  8
DIMENSIONI
 10
4.521017699115044
 20
42.58396686938335
 30
0.0
  0
VERTEX
  5
5AD
  8
DIMENSIONI
 10
4.471976401179941
 20
42.67080315256919
 30
0.0
  0
VERTEX
  5
5AE
  8
DIMENSIONI
 10
4.340523598820059
 20
42.83912911127126
 30
0.0
  0
VERTEX
  5
5AF
  8
DIMENSIONI
 10
4.155604719764012
 20
43.03142262159574
 30
0.0
  0
VERTEX
  5
5B0
  8
DIMENSIONI
 10
3.9172197640118
 20
43.24768368354265
 30
0.0
  0
SEQEND
  5
71F
  8
DIMENSIONI
  0
POLYLINE
  5
C1
  8
DIMENSIONI
 66
     1
 10
0.0
 20
0.0
 30
0.0
  0
VERTEX
  5
5B1
  8
DIMENSIONI
 10
-34.66393202250021
 20
43.66785330006181
 30
0.0
  0
VERTEX
  5
5B2
  8
DIMENSIONI
 10
-5.500000000000004
 20
43.66785330006181
 30
0.0
  0
SEQEND
  5
720
  8
DIMENSIONI
  0
POLYLINE
  5
C2
  8
DIMENSIONI
 66
     1
 10
0.0
 20
0.0
 30
0.0
  0
VERTEX
  5
5B3
  8
DIMENSIONI
 10
5.5
 20
43.66785330006181
 30
0.0
  0
VERTEX
  5
5B4
  8
DIMENSIONI
 10
34.66393202250021
 20
43.66785330006181
 30
0.0
  0
SEQEND
  5
721
  8
DIMENSIONI
  0
POLYLINE
  5
C3
  8
DIMENSIONI
 66
     1
 10
0.0
 20
0.0
 30
0.0
  0
VERTEX
  5
5B5
  8
DIMENSIONI
 10
-37.9
 20
2.5
 30
0.0
  0
VERTEX
  5
5B6
  8
DIMENSIONI
 10
-37.9
 20
45.66785330006181
 30
0.0
  0
SEQEND
  5
722
  8
DIMENSIONI
  0
POLYLINE
  5
C4
  8
DIMENSIONI
 66
     1
 10
0.0
 20
0.0
 30
0.0
  0
VERTEX
  5
5B7
  8
DIMENSIONI
 10
37.9
 20
2.5
 30
0.0
  0
VERTEX
  5
5B8
  8
DIMENSIONI
 10
37.9
 20
45.66785330006181
 30
0.0
  0
SEQEND
  5
723
  8
DIMENSIONI
  0
POLYLINE
  5
C5
  8
DIMENSIONI
 66
     1
 10
0.0
 20
0.0
 30
0.0
  0
VERTEX
  5
5B9
  8
DIMENSIONI
 10
-37.9
 20
43.66785330006181
 30
0.0
  0
VERTEX
  5
5BA
  8
DIMENSIONI
 10
-34.66393202250021
 20
42.66785330006181
 30
0.0
  0
SEQEND
  5
724
  8
DIMENSIONI
  0
POLYLINE
  5
C6
  8
DIMENSIONI
 66
     1
 10
0.0
 20
0.0
 30
0.0
  0
VERTEX
  5
5BB
  8
DIMENSIONI
 10
-34.66393202250021
 20
42.66785330006181
 30
0.0
  0
VERTEX
  5
5BC
  8
DIMENSIONI
 10
-34.66393202250021
 20
44.66785330006181
 30
0.0
  0
SEQEND
  5
725
  8
DIMENSIONI
  0
POLYLINE
  5
C7
  8
DIMENSIONI
 66
     1
 10
0.0
 20
0.0
 30
0.0
  0
VERTEX
  5
5BD
  8
DIMENSIONI
 10
-34.66393202250021
 20
44.66785330006181
 30
0.0
  0
VERTEX
  5
5BE
  8
DIMENSIONI
 10
-37.9
 20
43.66785330006181
 30
0.0
  0
SEQEND
  5
726
  8
DIMENSIONI
  0
POLYLINE
  5
C8
  8
DIMENSIONI
 66
     1
 10
0.0
 20
0.0
 30
0.0
  0
VERTEX
  5
5BF
  8
DIMENSIONI
 10
37.9
 20
43.66785330006181
 30
0.0
  0
VERTEX
  5
5C0
  8
DIMENSIONI
 10
34.66393202250021
 20
44.66785330006181
 30
0.0
  0
SEQEND
  5
727
  8
DIMENSIONI
  0
POLYLINE
  5
C9
  8
DIMENSIONI
 66
     1
 10
0.0
 20
0.0
 30
0.0
  0
VERTEX
  5
5C1
  8
DIMENSIONI
 10
34.66393202250021
 20
44.66785330006181
 30
0.0
  0
VERTEX
  5
5C2
  8
DIMENSIONI
 10
34.66393202250021
 20
42.66785330006181
 30
0.0
  0
SEQEND
  5
728
  8
DIMENSIONI
  0
POLYLINE
  5
CA
  8
DIMENSIONI
 66
     1
 10
0.0
 20
0.0
 30
0.0
  0
VERTEX
  5
5C3
  8
DIMENSIONI
 10
34.66393202250021
 20
42.66785330006181
 30
0.0
  0
VERTEX
  5
5C4
  8
DIMENSIONI
 10
37.9
 20
43.66785330006181
 30
0.0
  0
SEQEND
  5
729
  8
DIMENSIONI
  0
POLYLINE
  5
CB
  8
DIMENSIONI
 66
     1
 10
0.0
 20
0.0
 30
0.0
 70
     1
  0
VERTEX
  5
5C5
  8
DIMENSIONI
 10
-4.616519174041298
 20
56.9930548703901
 30
0.0
  0
VERTEX
  5
5C6
  8
DIMENSIONI
 10
-2.471976401179941
 20
56.9930548703901
 30
0.0
  0
VERTEX
  5
5C7
  8
DIMENSIONI
 10
-2.471976401179941
 20
56.88096047510987
 30
0.0
  0
VERTEX
  5
5C8
  8
DIMENSIONI
 10
-3.805309734513274
 20
52.91045900018361
 30
0.0
  0
VERTEX
  5
5C9
  8
DIMENSIONI
 10
-4.135693215339233
 20
52.91045900018361
 30
0.0
  0
VERTEX
  5
5CA
  8
DIMENSIONI
 10
-2.941002949852507
 20
56.51222891168804
 30
0.0
  0
VERTEX
  5
5CB
  8
DIMENSIONI
 10
-4.041297935103245
 20
56.51222891168804
 30
0.0
  0
VERTEX
  5
5CC
  8
DIMENSIONI
 10
-4.195980825958702
 20
56.50725103558185
 30
0.0
  0
VERTEX
  5
5CD
  8
DIMENSIONI
 10
-4.32669616519174
 20
56.49231740726326
 30
0.0
  0
VERTEX
  5
5CE
  8
DIMENSIONI
 10
-4.433443952802359
 20
56.46742802673229
 30
0.0
  0
VERTEX
  5
5CF
  8
DIMENSIONI
 10
-4.51622418879056
 20
56.43258289398892
 30
0.0
  0
VERTEX
  5
5D0
  8
DIMENSIONI
 10
-4.634033923303834
 20
56.35551799723377
 30
0.0
  0
VERTEX
  5
5D1
  8
DIMENSIONI
 10
-4.739675516224189
 20
56.26001652230751
 30
0.0
  0
VERTEX
  5
5D2
  8
DIMENSIONI
 10
-4.833148967551622
 20
56.14607846921017
 30
0.0
  0
VERTEX
  5
5D3
  8
DIMENSIONI
 10
-4.914454277286135
 20
56.01370383794173
 30
0.0
  0
VERTEX
  5
5D4
  8
DIMENSIONI
 10
-5.0
 20
56.04615221552285
 30
0.0
  0
SEQEND
  5
72A
  8
DIMENSIONI
  0
POLYLINE
  5
CC
  8
DIMENSIONI
 66
     1
 10
0.0
 20
0.0
 30
0.0
 70
     1
  0
VERTEX
  5
5D5
  8
DIMENSIONI
 10
-1.495575221238938
 20
56.60072448690928
 30
0.0
  0
VERTEX
  5
5D6
  8
DIMENSIONI
 10
-0.5221238938053099
 20
57.07565074059659
 30
0.0
  0
VERTEX
  5
5D7
  8
DIMENSIONI
 10
-0.4247787610619471
 20
57.07565074059659
 30
0.0
  0
VERTEX
  5
5D8
  8
DIMENSIONI
 10
-0.4247787610619471
 20
53.69806961965264
 30
0.0
  0
VERTEX
  5
5D9
  8
DIMENSIONI
 10
-0.4177728613569324
 20
53.42520826272049
 30
0.0
  0
VERTEX
  5
5DA
  8
DIMENSIONI
 10
-0.409015486725664
 20
53.33634395593582
 30
0.0
  0
VERTEX
  5
5DB
  8
DIMENSIONI
 10
-0.3967551622418881
 20
53.27919056360545
 30
0.0
  0
VERTEX
  5
5DC
  8
DIMENSIONI
 10
-0.3789638643067847
 20
53.24028938366445
 30
0.0
  0
VERTEX
  5
5DD
  8
DIMENSIONI
 10
-0.353613569321534
 20
53.20618171404792
 30
0.0
  0
VERTEX
  5
5DE
  8
DIMENSIONI
 10
-0.3207042772861357
 20
53.17686755475589
 30
0.0
  0
VERTEX
  5
5DF
  8
DIMENSIONI
 10
-0.28023598820059
 20
53.15234690578833
 30
0.0
  0
VERTEX
  5
5E0
  8
DIMENSIONI
 10
-0.2245575221238939
 20
53.13261976714527
 30
0.0
  0
VERTEX
  5
5E1
  8
DIMENSIONI
 10
-0.1460176991150444
 20
53.11768613882668
 30
0.0
  0
VERTEX
  5
5E2
  8
DIMENSIONI
 10
0.0796460176991149
 20
53.10219941316296
 30
0.0
  0
VERTEX
  5
5E3
  8
DIMENSIONI
 10
0.0796460176991149
 20
52.9930548703901
 30
0.0
  0
VERTEX
  5
5E4
  8
DIMENSIONI
 10
-1.424778761061947
 20
52.9930548703901
 30
0.0
  0
VERTEX
  5
5E5
  8
DIMENSIONI
 10
-1.424778761061947
 20
53.10219941316296
 30
0.0
  0
VERTEX
  5
5E6
  8
DIMENSIONI
 10
-1.191740412979351
 20
53.11731740726326
 30
0.0
  0
VERTEX
  5
5E7
  8
DIMENSIONI
 10
-1.11283185840708
 20
53.13179012112757
 30
0.0
  0
VERTEX
  5
5E8
  8
DIMENSIONI
 10
-1.058997050147493
 20
53.15087197953465
 30
0.0
  0
VERTEX
  5
5E9
  8
DIMENSIONI
 10
-0.9889380530973453
 20
53.20101947216002
 30
0.0
  0
VERTEX
  5
5EA
  8
DIMENSIONI
 10
-0.9439528023598822
 20
53.26591622732226
 30
0.0
  0
VERTEX
  5
5EB
  8
DIMENSIONI
 10
-0.9297566371681418
 20
53.32002758425441
 30
0.0
  0
VERTEX
  5
5EC
  8
DIMENSIONI
 10
-0.9196165191740415
 20
53.41009026862019
 30
0.0
  0
VERTEX
  5
5ED
  8
DIMENSIONI
 10
-0.9115044247787611
 20
53.69806961965264
 30
0.0
  0
VERTEX
  5
5EE
  8
DIMENSIONI
 10
-0.9115044247787611
 20
55.85736165505087
 30
0.0
  0
VERTEX
  5
5EF
  8
DIMENSIONI
 10
-0.9188790560471977
 20
56.21576873469689
 30
0.0
  0
VERTEX
  5
5F0
  8
DIMENSIONI
 10
-0.9280973451327434
 20
56.33634395593582
 30
0.0
  0
VERTEX
  5
5F1
  8
DIMENSIONI
 10
-0.9410029498525074
 20
56.41783363145205
 30
0.0
  0
VERTEX
  5
5F2
  8
DIMENSIONI
 10
-0.970132743362832
 20
56.49969203853171
 30
0.0
  0
VERTEX
  5
5F3
  8
DIMENSIONI
 10
-1.016224188790561
 20
56.55647669929866
 30
0.0
  0
VERTEX
  5
5F4
  8
DIMENSIONI
 10
-1.076327433628319
 20
56.58966254000662
 30
0.0
  0
VERTEX
  5
5F5
  8
DIMENSIONI
 10
-1.147492625368732
 20
56.60072448690928
 30
0.0
  0
VERTEX
  5
5F6
  8
DIMENSIONI
 10
-1.207411504424779
 20
56.59500914767624
 30
0.0
  0
VERTEX
  5
5F7
  8
DIMENSIONI
 10
-1.278023598820059
 20
56.57786312997712
 30
0.0
  0
VERTEX
  5
5F8
  8
DIMENSIONI
 10
-1.451327433628319
 20
56.50927905918066
 30
0.0
  0
SEQEND
  5
72B
  8
DIMENSIONI
  0
POLYLINE
  5
CD
  8
DIMENSIONI
 66
     1
 10
0.0
 20
0.0
 30
0.0
 70
     1
  0
VERTEX
  5
5F9
  8
DIMENSIONI
 10
1.572271386430678
 20
53.56532625682078
 30
0.0
  0
VERTEX
  5
5FA
  8
DIMENSIONI
 10
1.638827433628319
 20
53.55933436891517
 30
0.0
  0
VERTEX
  5
5FB
  8
DIMENSIONI
 10
1.699852507374631
 20
53.54135870519836
 30
0.0
  0
VERTEX
  5
5FC
  8
DIMENSIONI
 10
1.755346607669616
 20
53.51139926567034
 30
0.0
  0
VERTEX
  5
5FD
  8
DIMENSIONI
 10
1.805309734513274
 20
53.4694560503311
 30
0.0
  0
VERTEX
  5
5FE
  8
DIMENSIONI
 10
1.846607669616519
 20
53.41903200903317
 30
0.0
  0
VERTEX
  5
5FF
  8
DIMENSIONI
 10
1.876106194690265
 20
53.36363009162904
 30
0.0
  0
VERTEX
  5
600
  8
DIMENSIONI
 10
1.893805309734513
 20
53.30325029811871
 30
0.0
  0
VERTEX
  5
601
  8
DIMENSIONI
 10
1.899705014749262
 20
53.23789262850219
 30
0.0
  0
VERTEX
  5
602
  8
DIMENSIONI
 10
1.893713126843658
 20
53.17253495888568
 30
0.0
  0
VERTEX
  5
603
  8
DIMENSIONI
 10
1.875737463126844
 20
53.11215516537536
 30
0.0
  0
VERTEX
  5
604
  8
DIMENSIONI
 10
1.84577802359882
 20
53.05675324797123
 30
0.0
  0
VERTEX
  5
605
  8
DIMENSIONI
 10
1.803834808259587
 20
53.00632920667329
 30
0.0
  0
VERTEX
  5
606
  8
DIMENSIONI
 10
1.753410766961652
 20
52.96438599133406
 30
0.0
  0
VERTEX
  5
607
  8
DIMENSIONI
 10
1.698008849557522
 20
52.93442655180603
 30
0.0
  0
VERTEX
  5
608
  8
DIMENSIONI
 10
1.637629056047198
 20
52.91645088808922
 30
0.0
  0
VERTEX
  5
609
  8
DIMENSIONI
 10
1.572271386430678
 20
52.91045900018361
 30
0.0
  0
VERTEX
  5
60A
  8
DIMENSIONI
 10
1.506913716814159
 20
52.91645088808922
 30
0.0
  0
VERTEX
  5
60B
  8
DIMENSIONI
 10
1.446533923303834
 20
52.93442655180603
 30
0.0
  0
VERTEX
  5
60C
  8
DIMENSIONI
 10
1.391132005899705
 20
52.96438599133406
 30
0.0
  0
VERTEX
  5
60D
  8
DIMENSIONI
 10
1.34070796460177
 20
53.00632920667329
 30
0.0
  0
VERTEX
  5
60E
  8
DIMENSIONI
 10
1.298764749262537
 20
53.05675324797123
 30
0.0
  0
VERTEX
  5
60F
  8
DIMENSIONI
 10
1.268805309734513
 20
53.11215516537536
 30
0.0
  0
VERTEX
  5
610
  8
DIMENSIONI
 10
1.250829646017699
 20
53.17253495888568
 30
0.0
  0
VERTEX
  5
611
  8
DIMENSIONI
 10
1.244837758112094
 20
53.23789262850219
 30
0.0
  0
VERTEX
  5
612
  8
DIMENSIONI
 10
1.250829646017699
 20
53.30444867569983
 30
0.0
  0
VERTEX
  5
613
  8
DIMENSIONI
 10
1.268805309734513
 20
53.36547374944615
 30
0.0
  0
VERTEX
  5
614
  8
DIMENSIONI
 10
1.298764749262537
 20
53.42096784974113
 30
0.0
  0
VERTEX
  5
615
  8
DIMENSIONI
 10
1.34070796460177
 20
53.4709309765848
 30
0.0
  0
VERTEX
  5
616
  8
DIMENSIONI
 10
1.391132005899705
 20
53.51222891168804
 30
0.0
  0
VERTEX
  5
617
  8
DIMENSIONI
 10
1.446533923303834
 20
53.54172743676178
 30
0.0
  0
VERTEX
  5
618
  8
DIMENSIONI
 10
1.506913716814159
 20
53.55942655180603
 30
0.0
  0
SEQEND
  5
72C
  8
DIMENSIONI
  0
POLYLINE
  5
CE
  8
DIMENSIONI
 66
     1
 10
0.0
 20
0.0
 30
0.0
 70
     1
  0
VERTEX
  5
619
  8
DIMENSIONI
 10
3.486725663716814
 20
55.00780413292698
 30
0.0
  0
VERTEX
  5
61A
  8
DIMENSIONI
 10
3.270372418879056
 20
55.19290737776474
 30
0.0
  0
VERTEX
  5
61B
  8
DIMENSIONI
 10
3.096238938053097
 20
55.35883658130456
 30
0.0
  0
VERTEX
  5
61C
  8
DIMENSIONI
 10
2.964325221238938
 20
55.50559174354645
 30
0.0
  0
VERTEX
  5
61D
  8
DIMENSIONI
 10
2.874631268436578
 20
55.6331728644904
 30
0.0
  0
VERTEX
  5
61E
  8
DIMENSIONI
 10
2.814620206489676
 20
55.75227315947565
 30
0.0
  0
VERTEX
  5
61F
  8
DIMENSIONI
 10
2.771755162241888
 20
55.87358584384143
 30
0.0
  0
VERTEX
  5
620
  8
DIMENSIONI
 10
2.746036135693215
 20
55.99711091758775
 30
0.0
  0
VERTEX
  5
621
  8
DIMENSIONI
 10
2.737463126843658
 20
56.12284838071459
 30
0.0
  0
VERTEX
  5
622
  8
DIMENSIONI
 10
2.742164454277286
 20
56.21851117569983
 30
0.0
  0
VERTEX
  5
623
  8
DIMENSIONI
 10
2.756268436578171
 20
56.31080929516887
 30
0.0
  0
VERTEX
  5
624
  8
DIMENSIONI
 10
2.779775073746312
 20
56.39974273912166
 30
0.0
  0
VERTEX
  5
625
  8
DIMENSIONI
 10
2.812684365781711
 20
56.48531150755825
 30
0.0
  0
VERTEX
  5
626
  8
DIMENSIONI
 10
2.854996312684366
 20
56.5675156004786
 30
0.0
  0
VERTEX
  5
627
  8
DIMENSIONI
 10
2.906710914454278
 20
56.64635501788273
 30
0.0
  0
VERTEX
  5
628
  8
DIMENSIONI
 10
2.967828171091446
 20
56.72182975977063
 30
0.0
  0
VERTEX
  5
629
  8
DIMENSIONI
 10
3.03834808259587
 20
56.79393982614231
 30
0.0
  0
VERTEX
  5
62A
  8
DIMENSIONI
 10
3.116657448377581
 20
56.85996582171753
 30
0.0
  0
VERTEX
  5
62B
  8
DIMENSIONI
 10
3.201143067846608
 20
56.91718835121605
 30
0.0
  0
VERTEX
  5
62C
  8
DIMENSIONI
 10
3.29180494100295
 20
56.96560741463789
 30
0.0
  0
VERTEX
  5
62D
  8
DIMENSIONI
 10
3.388643067846608
 20
57.00522301198302
 30
0.0
  0
VERTEX
  5
62E
  8
DIMENSIONI
 10
3.491657448377581
 20
57.03603514325145
 30
0.0
  0
VERTEX
  5
62F
  8
DIMENSIONI
 10
3.60084808259587
 20
57.0580438084432
 30
0.0
  0
VERTEX
  5
630
  8
DIMENSIONI
 10
3.716214970501475
 20
57.07124900755825
 30
0.0
  0
VERTEX
  5
631
  8
DIMENSIONI
 10
3.837758112094395
 20
57.07565074059659
 30
0.0
  0
VERTEX
  5
632
  8
DIMENSIONI
 10
3.95575221238938
 20
57.07154860195352
 30
0.0
  0
VERTEX
  5
633
  8
DIMENSIONI
 10
4.067846607669616
 20
57.05924218602432
 30
0.0
  0
VERTEX
  5
634
  8
DIMENSIONI
 10
4.174041297935103
 20
57.03873149280899
 30
0.0
  0
VERTEX
  5
635
  8
DIMENSIONI
 10
4.274336283185841
 20
57.01001652230751
 30
0.0
  0
VERTEX
  5
636
  8
DIMENSIONI
 10
4.368731563421829
 20
56.9730972745199
 30
0.0
  0
VERTEX
  5
637
  8
DIMENSIONI
 10
4.457227138643068
 20
56.92797374944615
 30
0.0
  0
VERTEX
  5
638
  8
DIMENSIONI
 10
4.539823008849557
 20
56.87464594708627
 30
0.0
  0
VERTEX
  5
639
  8
DIMENSIONI
 10
4.616519174041298
 20
56.81311386744025
 30
0.0
  0
VERTEX
  5
63A
  8
DIMENSIONI
 10
4.685656342182891
 20
56.74632736301547
 30
0.0
  0
VERTEX
  5
63B
  8
DIMENSIONI
 10
4.745575221238938
 20
56.67723628631931
 30
0.0
  0
VERTEX
  5
63C
  8
DIMENSIONI
 10
4.796275811209439
 20
56.60584063735176
 30
0.0
  0
VERTEX
  5
63D
  8
DIMENSIONI
 10
4.837758112094395
 20
56.53214041611282
 30
0.0
  0
VERTEX
  5
63E
  8
DIMENSIONI
 10
4.870022123893804
 20
56.4561356226025
 30
0.0
  0
VERTEX
  5
63F
  8
DIMENSIONI
 10
4.89306784660767
 20
56.37782625682078
 30
0.0
  0
VERTEX
  5
640
  8
DIMENSIONI
 10
4.906895280235989
 20
56.29721231876769
 30
0.0
  0
VERTEX
  5
641
  8
DIMENSIONI
 10
4.911504424778761
 20
56.2142938084432
 30
0.0
  0
VERTEX
  5
642
  8
DIMENSIONI
 10
4.901548672566372
 20
56.10164631581783
 30
0.0
  0
VERTEX
  5
643
  8
DIMENSIONI
 10
4.871681415929204
 20
55.98789262850219
 30
0.0
  0
VERTEX
  5
644
  8
DIMENSIONI
 10
4.821902654867256
 20
55.8730327464963
 30
0.0
  0
VERTEX
  5
645
  8
DIMENSIONI
 10
4.752212389380531
 20
55.75706666980013
 30
0.0
  0
VERTEX
  5
646
  8
DIMENSIONI
 10
4.65099557522124
 20
55.63538525387093
 30
0.0
  0
VERTEX
  5
647
  8
DIMENSIONI
 10
4.506637168141593
 20
55.50337935416592
 30
0.0
  0
VERTEX
  5
648
  8
DIMENSIONI
 10
4.319137168141593
 20
55.36104897068509
 30
0.0
  0
VERTEX
  5
649
  8
DIMENSIONI
 10
4.08849557522124
 20
55.20839410342845
 30
0.0
  0
VERTEX
  5
64A
  8
DIMENSIONI
 10
4.326143067846608
 20
55.01849734826621
 30
0.0
  0
VERTEX
  5
64B
  8
DIMENSIONI
 10
4.519911504424778
 20
54.84998702378243
 30
0.0
  0
VERTEX
  5
64C
  8
DIMENSIONI
 10
4.669800884955752
 20
54.70286312997713
 30
0.0
  0
VERTEX
  5
64D
  8
DIMENSIONI
 10
4.775811209439528
 20
54.57712566685028
 30
0.0
  0
VERTEX
  5
64E
  8
DIMENSIONI
 10
4.873893805309734
 20
54.42465516537535
 30
0.0
  0
VERTEX
  5
64F
  8
DIMENSIONI
 10
4.943952802359882
 20
54.26812861670278
 30
0.0
  0
VERTEX
  5
650
  8
DIMENSIONI
 10
4.98598820058997
 20
54.10754602083257
 30
0.0
  0
VERTEX
  5
651
  8
DIMENSIONI
 10
5.0
 20
53.94290737776473
 30
0.0
  0
VERTEX
  5
652
  8
DIMENSIONI
 10
4.994976032448377
 20
53.83936294561134
 30
0.0
  0
VERTEX
  5
653
  8
DIMENSIONI
 10
4.97990412979351
 20
53.73964410342845
 30
0.0
  0
VERTEX
  5
654
  8
DIMENSIONI
 10
4.954784292035398
 20
53.64375085121606
 30
0.0
  0
VERTEX
  5
655
  8
DIMENSIONI
 10
4.919616519174041
 20
53.55168318897417
 30
0.0
  0
VERTEX
  5
656
  8
DIMENSIONI
 10
4.874400811209439
 20
53.46344111670279
 30
0.0
  0
VERTEX
  5
657
  8
DIMENSIONI
 10
4.819137168141593
 20
53.3790246344019
 30
0.0
  0
VERTEX
  5
658
  8
DIMENSIONI
 10
4.753825589970501
 20
53.29843374207152
 30
0.0
  0
VERTEX
  5
659
  8
DIMENSIONI
 10
4.678466076696165
 20
53.22166843971164
 30
0.0
  0
VERTEX
  5
65A
  8
DIMENSIONI
 10
4.594948377581122
 20
53.15149421404791
 30
0.0
  0
VERTEX
  5
65B
  8
DIMENSIONI
 10
4.505162241887906
 20
53.09067655180603
 30
0.0
  0
VERTEX
  5
65C
  8
DIMENSIONI
 10
4.409107669616519
 20
53.03921545298597
 30
0.0
  0
VERTEX
  5
65D
  8
DIMENSIONI
 10
4.306784660766962
 20
52.99711091758775
 30
0.0
  0
VERTEX
  5
65E
  8
DIMENSIONI
 10
4.198193215339234
 20
52.96436294561134
 30
0.0
  0
VERTEX
  5
65F
  8
DIMENSIONI
 10
4.083333333333334
 20
52.94097153705677
 30
0.0
  0
VERTEX
  5
660
  8
DIMENSIONI
 10
3.962205014749263
 20
52.92693669192403
 30
0.0
  0
VERTEX
  5
661
  8
DIMENSIONI
 10
3.834808259587021
 20
52.92225841021311
 30
0.0
  0
VERTEX
  5
662
  8
DIMENSIONI
 10
3.696395648967552
 20
52.92783547510987
 30
0.0
  0
VERTEX
  5
663
  8
DIMENSIONI
 10
3.565818584070796
 20
52.94456666980013
 30
0.0
  0
VERTEX
  5
664
  8
DIMENSIONI
 10
3.443077064896755
 20
52.97245199428391
 30
0.0
  0
VERTEX
  5
665
  8
DIMENSIONI
 10
3.328171091445427
 20
53.01149144856119
 30
0.0
  0
VERTEX
  5
666
  8
DIMENSIONI
 10
3.221100663716814
 20
53.06168503263199
 30
0.0
  0
VERTEX
  5
667
  8
DIMENSIONI
 10
3.121865781710914
 20
53.1230327464963
 30
0.0
  0
VERTEX
  5
668
  8
DIMENSIONI
 10
3.030466445427729
 20
53.19553459015412
 30
0.0
  0
VERTEX
  5
669
  8
DIMENSIONI
 10
2.946902654867257
 20
53.27919056360545
 30
0.0
  0
VERTEX
  5
66A
  8
DIMENSIONI
 10
2.835914454277286
 20
53.42557699428392
 30
0.0
  0
VERTEX
  5
66B
  8
DIMENSIONI
 10
2.792311946902655
 20
53.50125914767624
 30
0.0
  0
VERTEX
  5
66C
  8
DIMENSIONI
 10
2.756637168141593
 20
53.57860059310397
 30
0.0
  0
VERTEX
  5
66D
  8
DIMENSIONI
 10
2.728890117994101
 20
53.6576013305671
 30
0.0
  0
VERTEX
  5
66E
  8
DIMENSIONI
 10
2.709070796460177
 20
53.73826136006562
 30
0.0
  0
VERTEX
  5
66F
  8
DIMENSIONI
 10
2.697179203539823
 20
53.82058068159954
 30
0.0
  0
VERTEX
  5
670
  8
DIMENSIONI
 10
2.693215339233038
 20
53.90455929516887
 30
0.0
  0
VERTEX
  5
671
  8
DIMENSIONI
 10
2.704369469026549
 20
54.03702610932815
 30
0.0
  0
VERTEX
  5
672
  8
DIMENSIONI
 10
2.73783185840708
 20
54.16893982614231
 30
0.0
  0
VERTEX
  5
673
  8
DIMENSIONI
 10
2.793602507374631
 20
54.30030044561134
 30
0.0
  0
VERTEX
  5
674
  8
DIMENSIONI
 10
2.871681415929204
 20
54.43110796773524
 30
0.0
  0
VERTEX
  5
675
  8
DIMENSIONI
 10
2.977046460176991
 20
54.56504970814822
 30
0.0
  0
VERTEX
  5
676
  8
DIMENSIONI
 10
3.114675516224189
 20
54.7058129824845
 30
0.0
  0
VERTEX
  5
677
  8
DIMENSIONI
 10
3.284568584070796
 20
54.8533977907441
 30
0.0
  0
SEQEND
  5
72D
  8
DIMENSIONI
  0
POLYLINE
  5
CF
  8
DIMENSIONI
 66
     1
 10
0.0
 20
0.0
 30
0.0
 70
     1
  0
VERTEX
  5
678
  8
DIMENSIONI
 10
3.949852507374631
 20
55.32343835121606
 30
0.0
  0
VERTEX
  5
679
  8
DIMENSIONI
 10
4.110619469026549
 20
55.47434174354645
 30
0.0
  0
VERTEX
  5
67A
  8
DIMENSIONI
 10
4.238938053097344
 20
55.60846784974113
 30
0.0
  0
VERTEX
  5
67B
  8
DIMENSIONI
 10
4.334808259587021
 20
55.72581666980012
 30
0.0
  0
VERTEX
  5
67C
  8
DIMENSIONI
 10
4.398230088495575
 20
55.82638820372344
 30
0.0
  0
VERTEX
  5
67D
  8
DIMENSIONI
 10
4.43952802359882
 20
55.92161312997713
 30
0.0
  0
VERTEX
  5
67E
  8
DIMENSIONI
 10
4.469026548672566
 20
56.02292212702727
 30
0.0
  0
VERTEX
  5
67F
  8
DIMENSIONI
 10
4.486725663716815
 20
56.13031519487388
 30
0.0
  0
VERTEX
  5
680
  8
DIMENSIONI
 10
4.492625368731564
 20
56.24379233351695
 30
0.0
  0
VERTEX
  5
681
  8
DIMENSIONI
 10
4.48174778761062
 20
56.39027094708626
 30
0.0
  0
VERTEX
  5
682
  8
DIMENSIONI
 10
4.449115044247788
 20
56.51997227451989
 30
0.0
  0
VERTEX
  5
683
  8
DIMENSIONI
 10
4.394727138643068
 20
56.63289631581782
 30
0.0
  0
VERTEX
  5
684
  8
DIMENSIONI
 10
4.31858407079646
 20
56.72904307098008
 30
0.0
  0
VERTEX
  5
685
  8
DIMENSIONI
 10
4.223635693215339
 20
56.80583141906267
 30
0.0
  0
VERTEX
  5
686
  8
DIMENSIONI
 10
4.11283185840708
 20
56.86068023912167
 30
0.0
  0
VERTEX
  5
687
  8
DIMENSIONI
 10
3.986172566371681
 20
56.89358953115706
 30
0.0
  0
VERTEX
  5
688
  8
DIMENSIONI
 10
3.843657817109145
 20
56.90455929516887
 30
0.0
  0
VERTEX
  5
689
  8
DIMENSIONI
 10
3.700221238938053
 20
56.89368171404793
 30
0.0
  0
VERTEX
  5
68A
  8
DIMENSIONI
 10
3.570796460176991
 20
56.86104897068509
 30
0.0
  0
VERTEX
  5
68B
  8
DIMENSIONI
 10
3.455383480825959
 20
56.80666106508038
 30
0.0
  0
VERTEX
  5
68C
  8
DIMENSIONI
 10
3.353982300884956
 20
56.73051799723376
 30
0.0
  0
VERTEX
  5
68D
  8
DIMENSIONI
 10
3.271386430678466
 20
56.63981003263198
 30
0.0
  0
VERTEX
  5
68E
  8
DIMENSIONI
 10
3.212389380530974
 20
56.54172743676178
 30
0.0
  0
VERTEX
  5
68F
  8
DIMENSIONI
 10
3.176991150442478
 20
56.43627020962314
 30
0.0
  0
VERTEX
  5
690
  8
DIMENSIONI
 10
3.165191740412979
 20
56.32343835121606
 30
0.0
  0
VERTEX
  5
691
  8
DIMENSIONI
 10
3.170077433628319
 20
56.24674218602432
 30
0.0
  0
VERTEX
  5
692
  8
DIMENSIONI
 10
3.184734513274337
 20
56.17004602083259
 30
0.0
  0
VERTEX
  5
693
  8
DIMENSIONI
 10
3.209162979351032
 20
56.09334985564085
 30
0.0
  0
VERTEX
  5
694
  8
DIMENSIONI
 10
3.243362831858407
 20
56.0166536904491
 30
0.0
  0
VERTEX
  5
695
  8
DIMENSIONI
 10
3.286596607669617
 20
55.94087935416592
 30
0.0
  0
VERTEX
  5
696
  8
DIMENSIONI
 10
3.338126843657817
 20
55.86694867569985
 30
0.0
  0
VERTEX
  5
697
  8
DIMENSIONI
 10
3.466076696165192
 20
55.72461829221901
 30
0.0
  0
SEQEND
  5
72E
  8
DIMENSIONI
  0
POLYLINE
  5
D0
  8
DIMENSIONI
 66
     1
 10
0.0
 20
0.0
 30
0.0
 70
     1
  0
VERTEX
  5
698
  8
DIMENSIONI
 10
3.625368731563422
 20
54.89570973764674
 30
0.0
  0
VERTEX
  5
699
  8
DIMENSIONI
 10
3.510877581120944
 20
54.79016032761724
 30
0.0
  0
VERTEX
  5
69A
  8
DIMENSIONI
 10
3.412241887905605
 20
54.68000177304496
 30
0.0
  0
VERTEX
  5
69B
  8
DIMENSIONI
 10
3.329461651917404
 20
54.56523407392992
 30
0.0
  0
VERTEX
  5
69C
  8
DIMENSIONI
 10
3.262536873156342
 20
54.44585723027211
 30
0.0
  0
VERTEX
  5
69D
  8
DIMENSIONI
 10
3.210914454277287
 20
54.32168687628981
 30
0.0
  0
VERTEX
  5
69E
  8
DIMENSIONI
 10
3.174041297935104
 20
54.19253864620131
 30
0.0
  0
VERTEX
  5
69F
  8
DIMENSIONI
 10
3.151917404129794
 20
54.05841254000662
 30
0.0
  0
VERTEX
  5
6A0
  8
DIMENSIONI
 10
3.144542772861357
 20
53.91930855770574
 30
0.0
  0
VERTEX
  5
6A1
  8
DIMENSIONI
 10
3.157540560471976
 20
53.73853790873819
 30
0.0
  0
VERTEX
  5
6A2
  8
DIMENSIONI
 10
3.196533923303835
 20
53.57675693528686
 30
0.0
  0
VERTEX
  5
6A3
  8
DIMENSIONI
 10
3.225778945427729
 20
53.50298757687978
 30
0.0
  0
VERTEX
  5
6A4
  8
DIMENSIONI
 10
3.261522861356932
 20
53.43396563735175
 30
0.0
  0
VERTEX
  5
6A5
  8
DIMENSIONI
 10
3.303765671091445
 20
53.36969111670279
 30
0.0
  0
VERTEX
  5
6A6
  8
DIMENSIONI
 10
3.352507374631268
 20
53.31016401493288
 30
0.0
  0
VERTEX
  5
6A7
  8
DIMENSIONI
 10
3.406273045722714
 20
53.25658270962315
 30
0.0
  0
VERTEX
  5
6A8
  8
DIMENSIONI
 10
3.463587758112094
 20
53.21014557835471
 30
0.0
  0
VERTEX
  5
6A9
  8
DIMENSIONI
 10
3.52445151179941
 20
53.17085262112757
 30
0.0
  0
VERTEX
  5
6AA
  8
DIMENSIONI
 10
3.588864306784661
 20
53.13870383794173
 30
0.0
  0
VERTEX
  5
6AB
  8
DIMENSIONI
 10
3.656826143067846
 20
53.11369922879719
 30
0.0
  0
VERTEX
  5
6AC
  8
DIMENSIONI
 10
3.728337020648968
 20
53.09583879369394
 30
0.0
  0
VERTEX
  5
6AD
  8
DIMENSIONI
 10
3.882005899705015
 20
53.08155044561134
 30
0.0
  0
VERTEX
  5
6AE
  8
DIMENSIONI
 10
4.033370206489676
 20
53.09279675829571
 30
0.0
  0
VERTEX
  5
6AF
  8
DIMENSIONI
 10
4.168879056047198
 20
53.1265356963488
 30
0.0
  0
VERTEX
  5
6B0
  8
DIMENSIONI
 10
4.288532448377581
 20
53.18276725977064
 30
0.0
  0
VERTEX
  5
6B1
  8
DIMENSIONI
 10
4.392330383480826
 20
53.26149144856119
 30
0.0
  0
VERTEX
  5
6B2
  8
DIMENSIONI
 10
4.476216814159292
 20
53.3562554603606
 30
0.0
  0
VERTEX
  5
6B3
  8
DIMENSIONI
 10
4.536135693215339
 20
53.46060649280898
 30
0.0
  0
VERTEX
  5
6B4
  8
DIMENSIONI
 10
4.572087020648968
 20
53.57454454590633
 30
0.0
  0
VERTEX
  5
6B5
  8
DIMENSIONI
 10
4.584070796460177
 20
53.69806961965264
 30
0.0
  0
VERTEX
  5
6B6
  8
DIMENSIONI
 10
4.577064896755163
 20
53.80149882319246
 30
0.0
  0
VERTEX
  5
6B7
  8
DIMENSIONI
 10
4.556047197640118
 20
53.89939705328096
 30
0.0
  0
VERTEX
  5
6B8
  8
DIMENSIONI
 10
4.521017699115044
 20
53.99176430991812
 30
0.0
  0
VERTEX
  5
6B9
  8
DIMENSIONI
 10
4.471976401179941
 20
54.07860059310397
 30
0.0
  0
VERTEX
  5
6BA
  8
DIMENSIONI
 10
4.340523598820059
 20
54.24692655180604
 30
0.0
  0
VERTEX
  5
6BB
  8
DIMENSIONI
 10
4.155604719764012
 20
54.43922006213052
 30
0.0
  0
VERTEX
  5
6BC
  8
DIMENSIONI
 10
3.9172197640118
 20
54.65548112407743
 30
0.0
  0
SEQEND
  5
72F
  8
DIMENSIONI
  0
POLYLINE
  5
D1
  8
DIMENSIONI
 66
     1
 10
0.0
 20
0.0
 30
0.0
  0
VERTEX
  5
6BD
  8
DIMENSIONI
 10
-32.66393202250021
 20
55.07565074059659
 30
0.0
  0
VERTEX
  5
6BE
  8
DIMENSIONI
 10
-5.5
 20
55.07565074059659
 30
0.0
  0
SEQEND
  5
730
  8
DIMENSIONI
  0
POLYLINE
  5
D2
  8
DIMENSIONI
 66
     1
 10
0.0
 20
0.0
 30
0.0
  0
VERTEX
  5
6BF
  8
DIMENSIONI
 10
5.5
 20
55.07565074059659
 30
0.0
  0
VERTEX
  5
6C0
  8
DIMENSIONI
 10
32.66393202250021
 20
55.07565074059659
 30
0.0
  0
SEQEND
  5
731
  8
DIMENSIONI
  0
POLYLINE
  5
D3
  8
DIMENSIONI
 66
     1
 10
0.0
 20
0.0
 30
0.0
  0
VERTEX
  5
6C1
  8
DIMENSIONI
 10
-35.9
 20
2.5
 30
0.0
  0
VERTEX
  5
6C2
  8
DIMENSIONI
 10
-35.9
 20
57.07565074059659
 30
0.0
  0
SEQEND
  5
732
  8
DIMENSIONI
  0
POLYLINE
  5
D4
  8
DIMENSIONI
 66
     1
 10
0.0
 20
0.0
 30
0.0
  0
VERTEX
  5
6C3
  8
DIMENSIONI
 10
35.9
 20
2.5
 30
0.0
  0
VERTEX
  5
6C4
  8
DIMENSIONI
 10
35.9
 20
57.07565074059659
 30
0.0
  0
SEQEND
  5
733
  8
DIMENSIONI
  0
POLYLINE
  5
D5
  8
DIMENSIONI
 66
     1
 10
0.0
 20
0.0
 30
0.0
  0
VERTEX
  5
6C5
  8
DIMENSIONI
 10
-35.9
 20
55.07565074059659
 30
0.0
  0
VERTEX
  5
6C6
  8
DIMENSIONI
 10
-32.66393202250021
 20
54.07565074059659
 30
0.0
  0
SEQEND
  5
734
  8
DIMENSIONI
  0
POLYLINE
  5
D6
  8
DIMENSIONI
 66
     1
 10
0.0
 20
0.0
 30
0.0
  0
VERTEX
  5
6C7
  8
DIMENSIONI
 10
-32.66393202250021
 20
54.07565074059659
 30
0.0
  0
VERTEX
  5
6C8
  8
DIMENSIONI
 10
-32.66393202250021
 20
56.07565074059659
 30
0.0
  0
SEQEND
  5
735
  8
DIMENSIONI
  0
POLYLINE
  5
D7
  8
DIMENSIONI
 66
     1
 10
0.0
 20
0.0
 30
0.0
  0
VERTEX
  5
6C9
  8
DIMENSIONI
 10
-32.66393202250021
 20
56.07565074059659
 30
0.0
  0
VERTEX
  5
6CA
  8
DIMENSIONI
 10
-35.9
 20
55.07565074059659
 30
0.0
  0
SEQEND
  5
736
  8
DIMENSIONI
  0
POLYLINE
  5
D8
  8
DIMENSIONI
 66
     1
 10
0.0
 20
0.0
 30
0.0
  0
VERTEX
  5
6CB
  8
DIMENSIONI
 10
35.9
 20
55.07565074059659
 30
0.0
  0
VERTEX
  5
6CC
  8
DIMENSIONI
 10
32.66393202250021
 20
56.07565074059659
 30
0.0
  0
SEQEND
  5
737
  8
DIMENSIONI
  0
POLYLINE
  5
D9
  8
DIMENSIONI
 66
     1
 10
0.0
 20
0.0
 30
0.0
  0
VERTEX
  5
6CD
  8
DIMENSIONI
 10
32.66393202250021
 20
56.07565074059659
 30
0.0
  0
VERTEX
  5
6CE
  8
DIMENSIONI
 10
32.66393202250021
 20
54.07565074059659
 30
0.0
  0
SEQEND
  5
738
  8
DIMENSIONI
  0
POLYLINE
  5
DA
  8
DIMENSIONI
 66
     1
 10
0.0
 20
0.0
 30
0.0
  0
VERTEX
  5
6CF
  8
DIMENSIONI
 10
32.66393202250021
 20
54.07565074059659
 30
0.0
  0
VERTEX
  5
6D0
  8
DIMENSIONI
 10
35.9
 20
55.07565074059659
 30
0.0
  0
SEQEND
  5
739
  8
DIMENSIONI
  0
ENDSEC
  0
EOF
