  0
SECTION
  2
HEADER
  9
$ACADVER
  1
AC1009
  9
$DWGCODEPAGE
  3
undefined
  9
$INSBASE
 10
0.0
 20
0.0
 30
0.0
  9
$EXTMIN
 10
-40.0
 20
-40.0
 30
0.0
  9
$EXTMAX
 10
40.03574205461031
 20
53.48187999360302
 30
0.0
  9
$LIMMIN
 10
0.0
 20
0.0
  9
$LIMMAX
 10
12.0
 20
9.0
  9
$ORTHOMODE
 70
     0
  9
$REGENMODE
 70
     1
  9
$FILLMODE
 70
     1
  9
$QTEXTMODE
 70
     0
  9
$MIRRTEXT
 70
     1
  9
$DRAGMODE
 70
     2
  9
$LTSCALE
 40
1.0
  9
$OSMODE
 70
    37
  9
$ATTMODE
 70
     1
  9
$TEXTSIZE
 40
0.2
  9
$TRACEWID
 40
0.05
  9
$TEXTSTYLE
  7
STANDARD
  9
$CLAYER
  8
0
  9
$CELTYPE
  6
BYLAYER
  9
$CECOLOR
 62
   256
  9
$DIMSCALE
 40
1.0
  9
$DIMASZ
 40
0.18
  9
$DIMEXO
 40
0.0625
  9
$DIMDLI
 40
0.38
  9
$DIMRND
 40
0.0
  9
$DIMDLE
 40
0.0
  9
$DIMEXE
 40
0.18
  9
$DIMTP
 40
0.0
  9
$DIMTM
 40
0.0
  9
$DIMTXT
 40
0.18
  9
$DIMCEN
 40
0.09
  9
$DIMTSZ
 40
0.0
  9
$DIMTOL
 70
     0
  9
$DIMLIM
 70
     0
  9
$DIMTIH
 70
     1
  9
$DIMTOH
 70
     1
  9
$DIMSE1
 70
     0
  9
$DIMSE2
 70
     0
  9
$DIMTAD
 70
     0
  9
$DIMZIN
 70
     0
  9
$DIMBLK
  1

  9
$DIMASO
 70
     1
  9
$DIMSHO
 70
     1
  9
$DIMPOST
  1

  9
$DIMAPOST
  1

  9
$DIMALT
 70
     0
  9
$DIMALTD
 70
     2
  9
$DIMALTF
 40
25.4
  9
$DIMLFAC
 40
1.0
  9
$DIMTOFL
 70
     0
  9
$DIMTVP
 40
0.0
  9
$DIMTIX
 70
     0
  9
$DIMSOXD
 70
     0
  9
$DIMSAH
 70
     0
  9
$DIMBLK1
  1

  9
$DIMBLK2
  1

  9
$DIMSTYLE
  2
STANDARD
  9
$DIMCLRD
 70
     0
  9
$DIMCLRE
 70
     0
  9
$DIMCLRT
 70
     0
  9
$DIMTFAC
 40
1.0
  9
$DIMGAP
 40
0.09
  9
$LUNITS
 70
     2
  9
$LUPREC
 70
     4
  9
$SKETCHINC
 40
0.1
  9
$FILLETRAD
 40
0.5
  9
$AUNITS
 70
     0
  9
$AUPREC
 70
     0
  9
$MENU
  1
.
  9
$ELEVATION
 40
0.0
  9
$PELEVATION
 40
0.0
  9
$THICKNESS
 40
0.0
  9
$LIMCHECK
 70
     0
  9
$CHAMFERA
 40
0.0
  9
$CHAMFERB
 40
0.0
  9
$SKPOLY
 70
     0
  9
$TDCREATE
 40
2454910.5
  9
$TDUPDATE
 40
2460212.829699132
  9
$TDINDWG
 40
0.0000000116
  9
$TDUSRTIMER
 40
0.0000000116
  9
$USRTIMER
 70
     1
  9
$ANGBASE
 50
0.0
  9
$ANGDIR
 70
     0
  9
$PDMODE
 70
     0
  9
$PDSIZE
 40
0.0
  9
$PLINEWID
 40
0.0
  9
$COORDS
 70
     1
  9
$SPLFRAME
 70
     0
  9
$SPLINETYPE
 70
     6
  9
$SPLINESEGS
 70
     8
  9
$ATTDIA
 70
     0
  9
$ATTREQ
 70
     1
  9
$HANDLING
 70
     1
  9
$HANDSEED
  5
884
  9
$SURFTAB1
 70
     6
  9
$SURFTAB2
 70
     6
  9
$SURFTYPE
 70
     6
  9
$SURFU
 70
     6
  9
$SURFV
 70
     6
  9
$UCSNAME
  2

  9
$UCSORG
 10
0.0
 20
0.0
 30
0.0
  9
$UCSXDIR
 10
1.0
 20
0.0
 30
0.0
  9
$UCSYDIR
 10
0.0
 20
1.0
 30
0.0
  9
$PUCSNAME
  2

  9
$PUCSORG
 10
0.0
 20
0.0
 30
0.0
  9
$PUCSXDIR
 10
1.0
 20
0.0
 30
0.0
  9
$PUCSYDIR
 10
0.0
 20
1.0
 30
0.0
  9
$USERI1
 70
     0
  9
$USERI2
 70
     0
  9
$USERI3
 70
     0
  9
$USERI4
 70
     0
  9
$USERI5
 70
     0
  9
$USERR1
 40
0.0
  9
$USERR2
 40
0.0
  9
$USERR3
 40
0.0
  9
$USERR4
 40
0.0
  9
$USERR5
 40
0.0
  9
$WORLDVIEW
 70
     1
  9
$SHADEDGE
 70
     3
  9
$SHADEDIF
 70
    70
  9
$TILEMODE
 70
     1
  9
$MAXACTVP
 70
    64
  9
$PLIMCHECK
 70
     0
  9
$PEXTMIN
 10
1.000000000000000E+20
 20
1.000000000000000E+20
 30
1.000000000000000E+20
  9
$PEXTMAX
 10
-1.000000000000000E+20
 20
-1.000000000000000E+20
 30
-1.000000000000000E+20
  9
$PLIMMIN
 10
0.0
 20
0.0
  9
$PLIMMAX
 10
12.0
 20
9.0
  9
$UNITMODE
 70
     0
  9
$VISRETAIN
 70
     1
  9
$PLINEGEN
 70
     0
  9
$PSLTSCALE
 70
     1
  0
ENDSEC
  0
SECTION
  2
TABLES
  0
TABLE
  2
VPORT
 70
     1
  0
VPORT
  2
*ACTIVE
 70
     0
 10
0.0
 20
0.0
 11
1.0
 21
1.0
 12
10.42990654205607
 22
4.5
 13
0.0
 23
0.0
 14
0.5
 24
0.5
 15
0.5
 25
0.5
 16
0.0
 26
0.0
 36
1.0
 17
0.0
 27
0.0
 37
0.0
 40
9.0
 41
1.972972972850329
 42
50.0
 43
0.0
 44
0.0
 50
0.0
 51
0.0
 71
     0
 72
   100
 73
     1
 74
     3
 75
     0
 76
     0
 77
     0
 78
     0
  0
ENDTAB
  0
TABLE
  2
LTYPE
 70
     2
  0
LTYPE
  2
CONTINUOUS
 70
     0
  3
Solid line
 72
    65
 73
     0
 40
0.0
  0
LTYPE
  2
CONTINUOUS2
 70
     0
  3
Solid Line
 72
    65
 73
     0
 40
0.0
  0
ENDTAB
  0
TABLE
  2
LAYER
 70
     3
  0
LAYER
  2
0
 70
     0
 62
     7
  6
CONTINUOUS
  0
LAYER
  2
LAYER_1
 70
     0
 62
     7
  6
CONTINUOUS
  0
LAYER
  2
DIMENSIONI
 70
     0
 62
   253
  6
CONTINUOUS
  0
ENDTAB
  0
TABLE
  2
STYLE
 70
     1
  0
STYLE
  2
STANDARD
 70
     0
 40
0.0
 41
1.0
 50
0.0
 71
     0
 42
0.2
  3
txt
  4

  0
ENDTAB
  0
TABLE
  2
VIEW
 70
     0
  0
ENDTAB
  0
TABLE
  2
UCS
 70
     0
  0
ENDTAB
  0
TABLE
  2
APPID
 70
     1
  0
APPID
  2
ACAD
 70
     0
  0
ENDTAB
  0
TABLE
  2
DIMSTYLE
 70
     1
  0
DIMSTYLE
  2
STANDARD
 70
     0
  3

  4

  5

  6

  7

 40
1.0
 41
0.18
 42
0.0625
 43
0.38
 44
0.18
 45
0.0
 46
0.0
 47
0.0
 48
0.0
140
0.18
141
0.09
142
0.0
143
25.4
144
1.0
145
0.0
146
1.0
147
0.09
 71
     0
 72
     0
 73
     1
 74
     1
 75
     0
 76
     0
 77
     0
 78
     0
170
     0
171
     2
172
     0
173
     0
174
     0
175
     0
176
     0
177
     0
178
     0
  0
ENDTAB
  0
ENDSEC
  0
SECTION
  2
BLOCKS
  0
BLOCK
  8
0
  2
$MODEL_SPACE
 70
     0
 10
0.0
 20
0.0
 30
0.0
  3
$MODEL_SPACE
  1

  0
ENDBLK
  5
21
  8
0
  0
BLOCK
 67
     1
  8
0
  2
$PAPER_SPACE
 70
     0
 10
0.0
 20
0.0
 30
0.0
  3
$PAPER_SPACE
  1

  0
ENDBLK
  5
1D
 67
     1
  8
0
  0
ENDSEC
  0
SECTION
  2
ENTITIES
  0
POLYLINE
  5
70
  8
LAYER_1
 66
     1
 10
0.0
 20
0.0
 30
0.0
 70
     1
  0
VERTEX
  5
D9
  8
LAYER_1
 10
-36.36753236814714
 20
-40.0
 30
0.0
  0
VERTEX
  5
DA
  8
LAYER_1
 10
-40.0
 20
-36.36753236814714
 30
0.0
  0
VERTEX
  5
DB
  8
LAYER_1
 10
-40.0
 20
36.36753236814715
 30
0.0
  0
VERTEX
  5
DC
  8
LAYER_1
 10
-36.36753236814714
 20
40.0
 30
0.0
  0
VERTEX
  5
DD
  8
LAYER_1
 10
36.36753236814714
 20
40.0
 30
0.0
  0
VERTEX
  5
DE
  8
LAYER_1
 10
40.0
 20
36.36753236814714
 30
0.0
  0
VERTEX
  5
DF
  8
LAYER_1
 10
40.0
 20
-36.36753236814714
 30
0.0
  0
VERTEX
  5
E0
  8
LAYER_1
 10
36.36753236814714
 20
-40.0
 30
0.0
  0
SEQEND
  5
823
  8
LAYER_1
  0
POLYLINE
  5
71
  8
LAYER_1
 66
     1
 10
0.0
 20
0.0
 30
0.0
 70
     1
  0
VERTEX
  5
E1
  8
LAYER_1
 10
-33.5
 20
35.1
 30
0.0
 42
0.4142135623730951
  0
VERTEX
  5
E2
  8
LAYER_1
 10
-35.1
 20
33.5
 30
0.0
 42
0.4142135623730951
  0
VERTEX
  5
E3
  8
LAYER_1
 10
-33.5
 20
31.9
 30
0.0
 42
0.4142135623730951
  0
VERTEX
  5
E4
  8
LAYER_1
 10
-31.9
 20
33.5
 30
0.0
 42
0.4142135623730951
  0
SEQEND
  5
824
  8
LAYER_1
  0
POLYLINE
  5
72
  8
LAYER_1
 66
     1
 10
0.0
 20
0.0
 30
0.0
 70
     1
  0
VERTEX
  5
E5
  8
LAYER_1
 10
33.5
 20
35.1
 30
0.0
 42
0.4142135623730951
  0
VERTEX
  5
E6
  8
LAYER_1
 10
31.9
 20
33.5
 30
0.0
 42
0.4142135623730951
  0
VERTEX
  5
E7
  8
LAYER_1
 10
33.5
 20
31.9
 30
0.0
 42
0.4142135623730951
  0
VERTEX
  5
E8
  8
LAYER_1
 10
35.1
 20
33.5
 30
0.0
 42
0.4142135623730951
  0
SEQEND
  5
825
  8
LAYER_1
  0
POLYLINE
  5
73
  8
LAYER_1
 66
     1
 10
0.0
 20
0.0
 30
0.0
 70
     1
  0
VERTEX
  5
E9
  8
LAYER_1
 10
33.5
 20
-31.9
 30
0.0
 42
0.4142135623730951
  0
VERTEX
  5
EA
  8
LAYER_1
 10
31.9
 20
-33.5
 30
0.0
 42
0.4142135623730951
  0
VERTEX
  5
EB
  8
LAYER_1
 10
33.5
 20
-35.1
 30
0.0
 42
0.4142135623730951
  0
VERTEX
  5
EC
  8
LAYER_1
 10
35.1
 20
-33.5
 30
0.0
 42
0.4142135623730951
  0
SEQEND
  5
826
  8
LAYER_1
  0
POLYLINE
  5
74
  8
LAYER_1
 66
     1
 10
0.0
 20
0.0
 30
0.0
 70
     1
  0
VERTEX
  5
ED
  8
LAYER_1
 10
-33.5
 20
-31.9
 30
0.0
 42
0.4142135623730951
  0
VERTEX
  5
EE
  8
LAYER_1
 10
-35.1
 20
-33.5
 30
0.0
 42
0.4142135623730951
  0
VERTEX
  5
EF
  8
LAYER_1
 10
-33.5
 20
-35.1
 30
0.0
 42
0.4142135623730951
  0
VERTEX
  5
F0
  8
LAYER_1
 10
-31.9
 20
-33.5
 30
0.0
 42
0.4142135623730951
  0
SEQEND
  5
827
  8
LAYER_1
  0
POLYLINE
  5
75
  8
LAYER_1
 66
     1
 10
0.0
 20
0.0
 30
0.0
 70
     1
  0
VERTEX
  5
F1
  8
LAYER_1
 10
-33.5
 20
36.6
 30
0.0
 42
0.4142135623730951
  0
VERTEX
  5
F2
  8
LAYER_1
 10
-36.6
 20
33.5
 30
0.0
 42
0.4142135623730951
  0
VERTEX
  5
F3
  8
LAYER_1
 10
-33.5
 20
30.4
 30
0.0
 42
0.4142135623730951
  0
VERTEX
  5
F4
  8
LAYER_1
 10
-30.4
 20
33.5
 30
0.0
 42
0.4142135623730951
  0
SEQEND
  5
828
  8
LAYER_1
  0
POLYLINE
  5
76
  8
LAYER_1
 66
     1
 10
0.0
 20
0.0
 30
0.0
 70
     1
  0
VERTEX
  5
F5
  8
LAYER_1
 10
33.5
 20
36.6
 30
0.0
 42
0.4142135623730951
  0
VERTEX
  5
F6
  8
LAYER_1
 10
30.4
 20
33.5
 30
0.0
 42
0.4142135623730951
  0
VERTEX
  5
F7
  8
LAYER_1
 10
33.5
 20
30.4
 30
0.0
 42
0.4142135623730951
  0
VERTEX
  5
F8
  8
LAYER_1
 10
36.6
 20
33.5
 30
0.0
 42
0.4142135623730951
  0
SEQEND
  5
829
  8
LAYER_1
  0
POLYLINE
  5
77
  8
LAYER_1
 66
     1
 10
0.0
 20
0.0
 30
0.0
 70
     1
  0
VERTEX
  5
F9
  8
LAYER_1
 10
33.49999999988358
 20
-30.4
 30
0.0
 42
0.4142135623730951
  0
VERTEX
  5
FA
  8
LAYER_1
 10
30.39999999988358
 20
-33.5
 30
0.0
 42
0.4142135623730951
  0
VERTEX
  5
FB
  8
LAYER_1
 10
33.49999999988358
 20
-36.6
 30
0.0
 42
0.4142135623730951
  0
VERTEX
  5
FC
  8
LAYER_1
 10
36.59999999988359
 20
-33.5
 30
0.0
 42
0.4142135623730951
  0
SEQEND
  5
82A
  8
LAYER_1
  0
POLYLINE
  5
78
  8
LAYER_1
 66
     1
 10
0.0
 20
0.0
 30
0.0
 70
     1
  0
VERTEX
  5
FD
  8
LAYER_1
 10
-33.5
 20
-30.4
 30
0.0
 42
0.4142135623730951
  0
VERTEX
  5
FE
  8
LAYER_1
 10
-36.6
 20
-33.5
 30
0.0
 42
0.4142135623730951
  0
VERTEX
  5
FF
  8
LAYER_1
 10
-33.5
 20
-36.6
 30
0.0
 42
0.4142135623730951
  0
VERTEX
  5
100
  8
LAYER_1
 10
-30.4
 20
-33.5
 30
0.0
 42
0.4142135623730951
  0
SEQEND
  5
82B
  8
LAYER_1
  0
POLYLINE
  5
79
  8
LAYER_1
 66
     1
 10
0.0
 20
0.0
 30
0.0
 70
     1
  0
VERTEX
  5
101
  8
LAYER_1
 10
0.0
 20
40.0
 30
0.0
 42
0.4142135623730951
  0
VERTEX
  5
102
  8
LAYER_1
 10
-40.0
 20
0.0
 30
0.0
 42
0.4142135623730951
  0
VERTEX
  5
103
  8
LAYER_1
 10
0.0
 20
-40.0
 30
0.0
 42
0.4142135623730951
  0
VERTEX
  5
104
  8
LAYER_1
 10
40.0
 20
0.0
 30
0.0
 42
0.4142135623730951
  0
SEQEND
  5
82C
  8
LAYER_1
  0
POLYLINE
  5
7A
  8
LAYER_1
 66
     1
 10
0.0
 20
0.0
 30
0.0
 70
     1
  0
VERTEX
  5
105
  8
LAYER_1
 10
-0.0000000000000001
 20
38.0
 30
0.0
 42
0.4142135623730951
  0
VERTEX
  5
106
  8
LAYER_1
 10
-38.0
 20
0.0000000000000001
 30
0.0
 42
0.4142135623730951
  0
VERTEX
  5
107
  8
LAYER_1
 10
0.0000000000000001
 20
-38.0
 30
0.0
 42
0.4142135623730951
  0
VERTEX
  5
108
  8
LAYER_1
 10
38.0
 20
-0.0000000000000001
 30
0.0
 42
0.4142135623730951
  0
SEQEND
  5
82D
  8
LAYER_1
  0
POLYLINE
  5
7B
  8
LAYER_1
 66
     1
 10
0.0
 20
0.0
 30
0.0
 70
     1
  0
VERTEX
  5
109
  8
LAYER_1
 10
-16.0
 20
17.6
 30
0.0
 42
0.4142135623730951
  0
VERTEX
  5
10A
  8
LAYER_1
 10
-17.6
 20
16.0
 30
0.0
 42
0.4142135623730951
  0
VERTEX
  5
10B
  8
LAYER_1
 10
-16.0
 20
14.4
 30
0.0
 42
0.4142135623730951
  0
VERTEX
  5
10C
  8
LAYER_1
 10
-14.4
 20
16.0
 30
0.0
 42
0.4142135623730951
  0
SEQEND
  5
82E
  8
LAYER_1
  0
POLYLINE
  5
7C
  8
LAYER_1
 66
     1
 10
0.0
 20
0.0
 30
0.0
 70
     1
  0
VERTEX
  5
10D
  8
LAYER_1
 10
15.99999999988358
 20
17.6
 30
0.0
 42
0.4142135623730951
  0
VERTEX
  5
10E
  8
LAYER_1
 10
14.39999999988359
 20
16.0
 30
0.0
 42
0.4142135623730951
  0
VERTEX
  5
10F
  8
LAYER_1
 10
15.99999999988358
 20
14.4
 30
0.0
 42
0.4142135623730951
  0
VERTEX
  5
110
  8
LAYER_1
 10
17.59999999988359
 20
16.0
 30
0.0
 42
0.4142135623730951
  0
SEQEND
  5
82F
  8
LAYER_1
  0
POLYLINE
  5
7D
  8
LAYER_1
 66
     1
 10
0.0
 20
0.0
 30
0.0
 70
     1
  0
VERTEX
  5
111
  8
LAYER_1
 10
15.99999999988358
 20
-14.4
 30
0.0
 42
0.4142135623730951
  0
VERTEX
  5
112
  8
LAYER_1
 10
14.39999999988359
 20
-16.0
 30
0.0
 42
0.4142135623730951
  0
VERTEX
  5
113
  8
LAYER_1
 10
15.99999999988358
 20
-17.6
 30
0.0
 42
0.4142135623730951
  0
VERTEX
  5
114
  8
LAYER_1
 10
17.59999999988359
 20
-16.0
 30
0.0
 42
0.4142135623730951
  0
SEQEND
  5
830
  8
LAYER_1
  0
POLYLINE
  5
7E
  8
LAYER_1
 66
     1
 10
0.0
 20
0.0
 30
0.0
 70
     1
  0
VERTEX
  5
115
  8
LAYER_1
 10
-16.00000000011642
 20
-14.4
 30
0.0
 42
0.4142135623730951
  0
VERTEX
  5
116
  8
LAYER_1
 10
-17.60000000011642
 20
-16.0
 30
0.0
 42
0.4142135623730951
  0
VERTEX
  5
117
  8
LAYER_1
 10
-16.00000000011642
 20
-17.6
 30
0.0
 42
0.4142135623730951
  0
VERTEX
  5
118
  8
LAYER_1
 10
-14.40000000011642
 20
-16.0
 30
0.0
 42
0.4142135623730951
  0
SEQEND
  5
831
  8
LAYER_1
  0
POLYLINE
  5
7F
  8
LAYER_1
 66
     1
 10
0.0
 20
0.0
 30
0.0
 70
     1
  0
VERTEX
  5
119
  8
LAYER_1
 10
0.0
 20
18.0
 30
0.0
 42
0.4142135623730951
  0
VERTEX
  5
11A
  8
LAYER_1
 10
-18.0
 20
0.0
 30
0.0
 42
0.4142135623730951
  0
VERTEX
  5
11B
  8
LAYER_1
 10
0.0
 20
-18.0
 30
0.0
 42
0.4142135623730951
  0
VERTEX
  5
11C
  8
LAYER_1
 10
18.0
 20
0.0
 30
0.0
 42
0.4142135623730951
  0
SEQEND
  5
832
  8
LAYER_1
  0
POLYLINE
  5
80
  8
LAYER_1
 66
     1
 10
0.0
 20
0.0
 30
0.0
 70
     1
  0
VERTEX
  5
11D
  8
LAYER_1
 10
-20.75
 20
-17.75
 30
0.0
 42
0.4142135623730951
  0
VERTEX
  5
11E
  8
LAYER_1
 10
-17.75
 20
-20.75
 30
0.0
  0
VERTEX
  5
11F
  8
LAYER_1
 10
17.75
 20
-20.75
 30
0.0
 42
0.4142135623730951
  0
VERTEX
  5
120
  8
LAYER_1
 10
20.75
 20
-17.75
 30
0.0
  0
VERTEX
  5
121
  8
LAYER_1
 10
20.75
 20
17.75
 30
0.0
 42
0.4142135623730951
  0
VERTEX
  5
122
  8
LAYER_1
 10
17.75
 20
20.75
 30
0.0
  0
VERTEX
  5
123
  8
LAYER_1
 10
-17.75
 20
20.75
 30
0.0
 42
0.4142135623730951
  0
VERTEX
  5
124
  8
LAYER_1
 10
-20.75
 20
17.75
 30
0.0
  0
SEQEND
  5
833
  8
LAYER_1
  0
POLYLINE
  5
82
  8
DIMENSIONI
 66
     1
 10
0.0
 20
0.0
 30
0.0
 70
     1
  0
VERTEX
  5
125
  8
DIMENSIONI
 10
-4.171565378104733
 20
45.11986539229809
 30
0.0
  0
VERTEX
  5
126
  8
DIMENSIONI
 10
-4.387918622942491
 20
45.30496863713584
 30
0.0
  0
VERTEX
  5
127
  8
DIMENSIONI
 10
-4.562052103768449
 20
45.47089784067568
 30
0.0
  0
VERTEX
  5
128
  8
DIMENSIONI
 10
-4.693965820582608
 20
45.61765300291756
 30
0.0
  0
VERTEX
  5
129
  8
DIMENSIONI
 10
-4.783659773384969
 20
45.74523412386151
 30
0.0
  0
VERTEX
  5
12A
  8
DIMENSIONI
 10
-4.843670835331871
 20
45.86433441884677
 30
0.0
  0
VERTEX
  5
12B
  8
DIMENSIONI
 10
-4.886535879579658
 20
45.98564710321254
 30
0.0
  0
VERTEX
  5
12C
  8
DIMENSIONI
 10
-4.91225490612833
 20
46.10917217695885
 30
0.0
  0
VERTEX
  5
12D
  8
DIMENSIONI
 10
-4.920827914977888
 20
46.2349096400857
 30
0.0
  0
VERTEX
  5
12E
  8
DIMENSIONI
 10
-4.91612658754426
 20
46.33057243507095
 30
0.0
  0
VERTEX
  5
12F
  8
DIMENSIONI
 10
-4.902022605243374
 20
46.42287055453997
 30
0.0
  0
VERTEX
  5
130
  8
DIMENSIONI
 10
-4.878515968075233
 20
46.51180399849277
 30
0.0
  0
VERTEX
  5
131
  8
DIMENSIONI
 10
-4.845606676039836
 20
46.59737276692935
 30
0.0
  0
VERTEX
  5
132
  8
DIMENSIONI
 10
-4.803294729137181
 20
46.6795768598497
 30
0.0
  0
VERTEX
  5
133
  8
DIMENSIONI
 10
-4.751580127367269
 20
46.75841627725383
 30
0.0
  0
VERTEX
  5
134
  8
DIMENSIONI
 10
-4.690462870730101
 20
46.83389101914173
 30
0.0
  0
VERTEX
  5
135
  8
DIMENSIONI
 10
-4.619942959225676
 20
46.90600108551342
 30
0.0
  0
VERTEX
  5
136
  8
DIMENSIONI
 10
-4.541633593443965
 20
46.97202708108865
 30
0.0
  0
VERTEX
  5
137
  8
DIMENSIONI
 10
-4.457147973974939
 20
47.02924961058717
 30
0.0
  0
VERTEX
  5
138
  8
DIMENSIONI
 10
-4.366486100818596
 20
47.077668674009
 30
0.0
  0
VERTEX
  5
139
  8
DIMENSIONI
 10
-4.269647973974939
 20
47.11728427135414
 30
0.0
  0
VERTEX
  5
13A
  8
DIMENSIONI
 10
-4.166633593443965
 20
47.14809640262257
 30
0.0
  0
VERTEX
  5
13B
  8
DIMENSIONI
 10
-4.057442959225677
 20
47.1701050678143
 30
0.0
  0
VERTEX
  5
13C
  8
DIMENSIONI
 10
-3.942076071320072
 20
47.18331026692935
 30
0.0
  0
VERTEX
  5
13D
  8
DIMENSIONI
 10
-3.820532929727151
 20
47.1877119999677
 30
0.0
  0
VERTEX
  5
13E
  8
DIMENSIONI
 10
-3.702538829432166
 20
47.18360986132464
 30
0.0
  0
VERTEX
  5
13F
  8
DIMENSIONI
 10
-3.59044443415193
 20
47.17130344539543
 30
0.0
  0
VERTEX
  5
140
  8
DIMENSIONI
 10
-3.484249743886443
 20
47.1507927521801
 30
0.0
  0
VERTEX
  5
141
  8
DIMENSIONI
 10
-3.383954758635705
 20
47.12207778167861
 30
0.0
  0
VERTEX
  5
142
  8
DIMENSIONI
 10
-3.289559478399717
 20
47.085158533891
 30
0.0
  0
VERTEX
  5
143
  8
DIMENSIONI
 10
-3.201063903178478
 20
47.04003500881726
 30
0.0
  0
VERTEX
  5
144
  8
DIMENSIONI
 10
-3.118468032971989
 20
46.98670720645738
 30
0.0
  0
VERTEX
  5
145
  8
DIMENSIONI
 10
-3.041771867780248
 20
46.92517512681136
 30
0.0
  0
VERTEX
  5
146
  8
DIMENSIONI
 10
-2.972634699638656
 20
46.85838862238658
 30
0.0
  0
VERTEX
  5
147
  8
DIMENSIONI
 10
-2.912715820582608
 20
46.78929754569042
 30
0.0
  0
VERTEX
  5
148
  8
DIMENSIONI
 10
-2.862015230612107
 20
46.71790189672286
 30
0.0
  0
VERTEX
  5
149
  8
DIMENSIONI
 10
-2.820532929727151
 20
46.64420167548393
 30
0.0
  0
VERTEX
  5
14A
  8
DIMENSIONI
 10
-2.78826891792774
 20
46.56819688197361
 30
0.0
  0
VERTEX
  5
14B
  8
DIMENSIONI
 10
-2.765223195213876
 20
46.48988751619189
 30
0.0
  0
VERTEX
  5
14C
  8
DIMENSIONI
 10
-2.751395761585558
 20
46.40927357813879
 30
0.0
  0
VERTEX
  5
14D
  8
DIMENSIONI
 10
-2.746786617042785
 20
46.32635506781431
 30
0.0
  0
VERTEX
  5
14E
  8
DIMENSIONI
 10
-2.756742369255174
 20
46.21370757518895
 30
0.0
  0
VERTEX
  5
14F
  8
DIMENSIONI
 10
-2.786609625892343
 20
46.09995388787331
 30
0.0
  0
VERTEX
  5
150
  8
DIMENSIONI
 10
-2.83638838695429
 20
45.98509400586741
 30
0.0
  0
VERTEX
  5
151
  8
DIMENSIONI
 10
-2.906078652441016
 20
45.86912792917124
 30
0.0
  0
VERTEX
  5
152
  8
DIMENSIONI
 10
-3.007295466600307
 20
45.74744651324204
 30
0.0
  0
VERTEX
  5
153
  8
DIMENSIONI
 10
-3.151653873679954
 20
45.61544061353702
 30
0.0
  0
VERTEX
  5
154
  8
DIMENSIONI
 10
-3.339153873679954
 20
45.4731102300562
 30
0.0
  0
VERTEX
  5
155
  8
DIMENSIONI
 10
-3.569795466600307
 20
45.32045536279956
 30
0.0
  0
VERTEX
  5
156
  8
DIMENSIONI
 10
-3.332147973974938
 20
45.13055860763733
 30
0.0
  0
VERTEX
  5
157
  8
DIMENSIONI
 10
-3.138379537396768
 20
44.96204828315355
 30
0.0
  0
VERTEX
  5
158
  8
DIMENSIONI
 10
-2.988490156865794
 20
44.81492438934823
 30
0.0
  0
VERTEX
  5
159
  8
DIMENSIONI
 10
-2.882479832382018
 20
44.68918692622139
 30
0.0
  0
VERTEX
  5
15A
  8
DIMENSIONI
 10
-2.784397236511812
 20
44.53671642474646
 30
0.0
  0
VERTEX
  5
15B
  8
DIMENSIONI
 10
-2.714338239461664
 20
44.3801898760739
 30
0.0
  0
VERTEX
  5
15C
  8
DIMENSIONI
 10
-2.672302841231576
 20
44.21960728020369
 30
0.0
  0
VERTEX
  5
15D
  8
DIMENSIONI
 10
-2.658291041821546
 20
44.05496863713584
 30
0.0
  0
VERTEX
  5
15E
  8
DIMENSIONI
 10
-2.663315009373169
 20
43.95142420498245
 30
0.0
  0
VERTEX
  5
15F
  8
DIMENSIONI
 10
-2.678386912028036
 20
43.85170536279956
 30
0.0
  0
VERTEX
  5
160
  8
DIMENSIONI
 10
-2.703506749786148
 20
43.75581211058717
 30
0.0
  0
VERTEX
  5
161
  8
DIMENSIONI
 10
-2.738674522647505
 20
43.66374444834528
 30
0.0
  0
VERTEX
  5
162
  8
DIMENSIONI
 10
-2.783890230612107
 20
43.5755023760739
 30
0.0
  0
VERTEX
  5
163
  8
DIMENSIONI
 10
-2.839153873679953
 20
43.49108589377302
 30
0.0
  0
VERTEX
  5
164
  8
DIMENSIONI
 10
-2.904465451851045
 20
43.41049500144263
 30
0.0
  0
VERTEX
  5
165
  8
DIMENSIONI
 10
-2.979824965125381
 20
43.33372969908275
 30
0.0
  0
VERTEX
  5
166
  8
DIMENSIONI
 10
-3.063342664240426
 20
43.26355547341903
 30
0.0
  0
VERTEX
  5
167
  8
DIMENSIONI
 10
-3.153128799933641
 20
43.20273781117714
 30
0.0
  0
VERTEX
  5
168
  8
DIMENSIONI
 10
-3.249183372205028
 20
43.15127671235707
 30
0.0
  0
VERTEX
  5
169
  8
DIMENSIONI
 10
-3.351506381054585
 20
43.10917217695885
 30
0.0
  0
VERTEX
  5
16A
  8
DIMENSIONI
 10
-3.460097826482313
 20
43.07642420498244
 30
0.0
  0
VERTEX
  5
16B
  8
DIMENSIONI
 10
-3.574957708488213
 20
43.05303279642788
 30
0.0
  0
VERTEX
  5
16C
  8
DIMENSIONI
 10
-3.696086027072284
 20
43.03899795129513
 30
0.0
  0
VERTEX
  5
16D
  8
DIMENSIONI
 10
-3.823482782234525
 20
43.03431966958422
 30
0.0
  0
VERTEX
  5
16E
  8
DIMENSIONI
 10
-3.961895392853995
 20
43.03989673448098
 30
0.0
  0
VERTEX
  5
16F
  8
DIMENSIONI
 10
-4.09247245775075
 20
43.05662792917124
 30
0.0
  0
VERTEX
  5
170
  8
DIMENSIONI
 10
-4.215213976924791
 20
43.08451325365502
 30
0.0
  0
VERTEX
  5
171
  8
DIMENSIONI
 10
-4.330119950376119
 20
43.1235527079323
 30
0.0
  0
VERTEX
  5
172
  8
DIMENSIONI
 10
-4.437190378104733
 20
43.1737462920031
 30
0.0
  0
VERTEX
  5
173
  8
DIMENSIONI
 10
-4.536425260110631
 20
43.23509400586741
 30
0.0
  0
VERTEX
  5
174
  8
DIMENSIONI
 10
-4.627824596393817
 20
43.30759584952523
 30
0.0
  0
VERTEX
  5
175
  8
DIMENSIONI
 10
-4.711388386954289
 20
43.39125182297656
 30
0.0
  0
VERTEX
  5
176
  8
DIMENSIONI
 10
-4.822376587544261
 20
43.53763825365502
 30
0.0
  0
VERTEX
  5
177
  8
DIMENSIONI
 10
-4.865979094918892
 20
43.61332040704735
 30
0.0
  0
VERTEX
  5
178
  8
DIMENSIONI
 10
-4.901653873679953
 20
43.69066185247507
 30
0.0
  0
VERTEX
  5
179
  8
DIMENSIONI
 10
-4.929400923827446
 20
43.7696625899382
 30
0.0
  0
VERTEX
  5
17A
  8
DIMENSIONI
 10
-4.949220245361369
 20
43.85032261943672
 30
0.0
  0
VERTEX
  5
17B
  8
DIMENSIONI
 10
-4.961111838281723
 20
43.93264194097065
 30
0.0
  0
VERTEX
  5
17C
  8
DIMENSIONI
 10
-4.965075702588508
 20
44.01662055453998
 30
0.0
  0
VERTEX
  5
17D
  8
DIMENSIONI
 10
-4.953921572794997
 20
44.14908736869927
 30
0.0
  0
VERTEX
  5
17E
  8
DIMENSIONI
 10
-4.920459183414467
 20
44.28100108551342
 30
0.0
  0
VERTEX
  5
17F
  8
DIMENSIONI
 10
-4.864688534446914
 20
44.41236170498246
 30
0.0
  0
VERTEX
  5
180
  8
DIMENSIONI
 10
-4.786609625892343
 20
44.54316922710635
 30
0.0
  0
VERTEX
  5
181
  8
DIMENSIONI
 10
-4.681244581644555
 20
44.67711096751933
 30
0.0
  0
VERTEX
  5
182
  8
DIMENSIONI
 10
-4.543615525597358
 20
44.81787424185561
 30
0.0
  0
VERTEX
  5
183
  8
DIMENSIONI
 10
-4.37372245775075
 20
44.9654590501152
 30
0.0
  0
SEQEND
  5
834
  8
DIMENSIONI
  0
POLYLINE
  5
83
  8
DIMENSIONI
 66
     1
 10
0.0
 20
0.0
 30
0.0
 70
     1
  0
VERTEX
  5
184
  8
DIMENSIONI
 10
-3.708438534446915
 20
45.43549961058717
 30
0.0
  0
VERTEX
  5
185
  8
DIMENSIONI
 10
-3.547671572794998
 20
45.58640300291755
 30
0.0
  0
VERTEX
  5
186
  8
DIMENSIONI
 10
-3.419352988724202
 20
45.72052910911225
 30
0.0
  0
VERTEX
  5
187
  8
DIMENSIONI
 10
-3.323482782234526
 20
45.83787792917124
 30
0.0
  0
VERTEX
  5
188
  8
DIMENSIONI
 10
-3.260060953325971
 20
45.93844946309455
 30
0.0
  0
VERTEX
  5
189
  8
DIMENSIONI
 10
-3.218763018222726
 20
46.03367438934823
 30
0.0
  0
VERTEX
  5
18A
  8
DIMENSIONI
 10
-3.18926449314898
 20
46.13498338639838
 30
0.0
  0
VERTEX
  5
18B
  8
DIMENSIONI
 10
-3.171565378104732
 20
46.24237645424499
 30
0.0
  0
VERTEX
  5
18C
  8
DIMENSIONI
 10
-3.165665673089983
 20
46.35585359288806
 30
0.0
  0
VERTEX
  5
18D
  8
DIMENSIONI
 10
-3.176543254210927
 20
46.50233220645738
 30
0.0
  0
VERTEX
  5
18E
  8
DIMENSIONI
 10
-3.209175997573758
 20
46.63203353389101
 30
0.0
  0
VERTEX
  5
18F
  8
DIMENSIONI
 10
-3.263563903178478
 20
46.74495757518894
 30
0.0
  0
VERTEX
  5
190
  8
DIMENSIONI
 10
-3.339706971025086
 20
46.84110433035119
 30
0.0
  0
VERTEX
  5
191
  8
DIMENSIONI
 10
-3.434655348606207
 20
46.91789267843377
 30
0.0
  0
VERTEX
  5
192
  8
DIMENSIONI
 10
-3.545459183414467
 20
46.97274149849278
 30
0.0
  0
VERTEX
  5
193
  8
DIMENSIONI
 10
-3.672118475449865
 20
47.00565079052818
 30
0.0
  0
VERTEX
  5
194
  8
DIMENSIONI
 10
-3.814633224712402
 20
47.01662055453998
 30
0.0
  0
VERTEX
  5
195
  8
DIMENSIONI
 10
-3.958069802883493
 20
47.00574297341903
 30
0.0
  0
VERTEX
  5
196
  8
DIMENSIONI
 10
-4.087494581644555
 20
46.9731102300562
 30
0.0
  0
VERTEX
  5
197
  8
DIMENSIONI
 10
-4.202907560995587
 20
46.91872232445148
 30
0.0
  0
VERTEX
  5
198
  8
DIMENSIONI
 10
-4.304308740936591
 20
46.84257925660487
 30
0.0
  0
VERTEX
  5
199
  8
DIMENSIONI
 10
-4.386904611143081
 20
46.7518712920031
 30
0.0
  0
VERTEX
  5
19A
  8
DIMENSIONI
 10
-4.445901661290574
 20
46.6537886961329
 30
0.0
  0
VERTEX
  5
19B
  8
DIMENSIONI
 10
-4.481299891379068
 20
46.54833146899425
 30
0.0
  0
VERTEX
  5
19C
  8
DIMENSIONI
 10
-4.493099301408567
 20
46.43549961058717
 30
0.0
  0
VERTEX
  5
19D
  8
DIMENSIONI
 10
-4.488213608193227
 20
46.35880344539543
 30
0.0
  0
VERTEX
  5
19E
  8
DIMENSIONI
 10
-4.47355652854721
 20
46.28210728020369
 30
0.0
  0
VERTEX
  5
19F
  8
DIMENSIONI
 10
-4.449128062470514
 20
46.20541111501195
 30
0.0
  0
VERTEX
  5
1A0
  8
DIMENSIONI
 10
-4.414928209963139
 20
46.12871494982021
 30
0.0
  0
VERTEX
  5
1A1
  8
DIMENSIONI
 10
-4.371694434151928
 20
46.05294061353702
 30
0.0
  0
VERTEX
  5
1A2
  8
DIMENSIONI
 10
-4.320164198163729
 20
45.97900993507095
 30
0.0
  0
VERTEX
  5
1A3
  8
DIMENSIONI
 10
-4.192214345656355
 20
45.83667955159012
 30
0.0
  0
SEQEND
  5
835
  8
DIMENSIONI
  0
POLYLINE
  5
84
  8
DIMENSIONI
 66
     1
 10
0.0
 20
0.0
 30
0.0
 70
     1
  0
VERTEX
  5
1A4
  8
DIMENSIONI
 10
-4.032922310258124
 20
45.00777099701785
 30
0.0
  0
VERTEX
  5
1A5
  8
DIMENSIONI
 10
-4.147413460700602
 20
44.90222158698835
 30
0.0
  0
VERTEX
  5
1A6
  8
DIMENSIONI
 10
-4.246049153915942
 20
44.79206303241608
 30
0.0
  0
VERTEX
  5
1A7
  8
DIMENSIONI
 10
-4.328829389904143
 20
44.67729533330104
 30
0.0
  0
VERTEX
  5
1A8
  8
DIMENSIONI
 10
-4.395754168665205
 20
44.55791848964322
 30
0.0
  0
VERTEX
  5
1A9
  8
DIMENSIONI
 10
-4.447376587544261
 20
44.43374813566092
 30
0.0
  0
VERTEX
  5
1AA
  8
DIMENSIONI
 10
-4.484249743886443
 20
44.30459990557242
 30
0.0
  0
VERTEX
  5
1AB
  8
DIMENSIONI
 10
-4.506373637691754
 20
44.17047379937773
 30
0.0
  0
VERTEX
  5
1AC
  8
DIMENSIONI
 10
-4.51374826896019
 20
44.03136981707685
 30
0.0
  0
VERTEX
  5
1AD
  8
DIMENSIONI
 10
-4.50075048134957
 20
43.8505991681093
 30
0.0
  0
VERTEX
  5
1AE
  8
DIMENSIONI
 10
-4.461757118517712
 20
43.68881819465797
 30
0.0
  0
VERTEX
  5
1AF
  8
DIMENSIONI
 10
-4.432512096393818
 20
43.61504883625089
 30
0.0
  0
VERTEX
  5
1B0
  8
DIMENSIONI
 10
-4.396768180464615
 20
43.54602689672286
 30
0.0
  0
VERTEX
  5
1B1
  8
DIMENSIONI
 10
-4.354525370730101
 20
43.48175237607389
 30
0.0
  0
VERTEX
  5
1B2
  8
DIMENSIONI
 10
-4.305783667190278
 20
43.42222527430399
 30
0.0
  0
VERTEX
  5
1B3
  8
DIMENSIONI
 10
-4.252017996098832
 20
43.36864396899426
 30
0.0
  0
VERTEX
  5
1B4
  8
DIMENSIONI
 10
-4.194703283709452
 20
43.32220683772582
 30
0.0
  0
VERTEX
  5
1B5
  8
DIMENSIONI
 10
-4.133839530022136
 20
43.28291388049868
 30
0.0
  0
VERTEX
  5
1B6
  8
DIMENSIONI
 10
-4.069426735036886
 20
43.25076509731284
 30
0.0
  0
VERTEX
  5
1B7
  8
DIMENSIONI
 10
-4.001464898753699
 20
43.22576048816829
 30
0.0
  0
VERTEX
  5
1B8
  8
DIMENSIONI
 10
-3.929954021172579
 20
43.20790005306505
 30
0.0
  0
VERTEX
  5
1B9
  8
DIMENSIONI
 10
-3.776285142116532
 20
43.19361170498245
 30
0.0
  0
VERTEX
  5
1BA
  8
DIMENSIONI
 10
-3.624920835331871
 20
43.20485801766682
 30
0.0
  0
VERTEX
  5
1BB
  8
DIMENSIONI
 10
-3.489411985774349
 20
43.23859695571991
 30
0.0
  0
VERTEX
  5
1BC
  8
DIMENSIONI
 10
-3.369758593443965
 20
43.29482851914175
 30
0.0
  0
VERTEX
  5
1BD
  8
DIMENSIONI
 10
-3.26596065834072
 20
43.3735527079323
 30
0.0
  0
VERTEX
  5
1BE
  8
DIMENSIONI
 10
-3.182074227662254
 20
43.46831671973172
 30
0.0
  0
VERTEX
  5
1BF
  8
DIMENSIONI
 10
-3.122155348606207
 20
43.5726677521801
 30
0.0
  0
VERTEX
  5
1C0
  8
DIMENSIONI
 10
-3.086204021172578
 20
43.68660580527744
 30
0.0
  0
VERTEX
  5
1C1
  8
DIMENSIONI
 10
-3.074220245361369
 20
43.81013087902375
 30
0.0
  0
VERTEX
  5
1C2
  8
DIMENSIONI
 10
-3.081226145066384
 20
43.91356008256357
 30
0.0
  0
VERTEX
  5
1C3
  8
DIMENSIONI
 10
-3.102243844181428
 20
44.01145831265207
 30
0.0
  0
VERTEX
  5
1C4
  8
DIMENSIONI
 10
-3.137273342706502
 20
44.10382556928923
 30
0.0
  0
VERTEX
  5
1C5
  8
DIMENSIONI
 10
-3.186314640641605
 20
44.19066185247508
 30
0.0
  0
VERTEX
  5
1C6
  8
DIMENSIONI
 10
-3.317767443001487
 20
44.35898781117714
 30
0.0
  0
VERTEX
  5
1C7
  8
DIMENSIONI
 10
-3.502686322057534
 20
44.55128132150163
 30
0.0
  0
VERTEX
  5
1C8
  8
DIMENSIONI
 10
-3.741071277809747
 20
44.76754238344853
 30
0.0
  0
SEQEND
  5
836
  8
DIMENSIONI
  0
POLYLINE
  5
85
  8
DIMENSIONI
 66
     1
 10
0.0
 20
0.0
 30
0.0
 70
     1
  0
VERTEX
  5
1C9
  8
DIMENSIONI
 10
-2.091919360405617
 20
45.08151730970221
 30
0.0
  0
VERTEX
  5
1CA
  8
DIMENSIONI
 10
-2.079013755685853
 20
45.41180860763733
 30
0.0
  0
VERTEX
  5
1CB
  8
DIMENSIONI
 10
-2.040296941526561
 20
45.71831671973172
 30
0.0
  0
VERTEX
  5
1CC
  8
DIMENSIONI
 10
-2.011259330907092
 20
45.86265208108864
 30
0.0
  0
VERTEX
  5
1CD
  8
DIMENSIONI
 10
-1.975768917927741
 20
46.0010416459854
 30
0.0
  0
VERTEX
  5
1CE
  8
DIMENSIONI
 10
-1.933825702588508
 20
46.13348541442198
 30
0.0
  0
VERTEX
  5
1CF
  8
DIMENSIONI
 10
-1.885429684889393
 20
46.25998338639838
 30
0.0
  0
VERTEX
  5
1D0
  8
DIMENSIONI
 10
-1.773704021172579
 20
46.49127025955472
 30
0.0
  0
VERTEX
  5
1D1
  8
DIMENSIONI
 10
-1.711480569845145
 20
46.59509124038068
 30
0.0
  0
VERTEX
  5
1D2
  8
DIMENSIONI
 10
-1.64501670553836
 20
46.6910305840385
 30
0.0
  0
VERTEX
  5
1D3
  8
DIMENSIONI
 10
-1.574312428252225
 20
46.77908829052818
 30
0.0
  0
VERTEX
  5
1D4
  8
DIMENSIONI
 10
-1.499367737986738
 20
46.85926435984972
 30
0.0
  0
VERTEX
  5
1D5
  8
DIMENSIONI
 10
-1.4201826347419
 20
46.93155879200311
 30
0.0
  0
VERTEX
  5
1D6
  8
DIMENSIONI
 10
-1.336757118517711
 20
46.99597158698835
 30
0.0
  0
VERTEX
  5
1D7
  8
DIMENSIONI
 10
-1.202907560995587
 20
47.07985801766682
 30
0.0
  0
VERTEX
  5
1D8
  8
DIMENSIONI
 10
-1.066845614092933
 20
47.13977689672287
 30
0.0
  0
VERTEX
  5
1D9
  8
DIMENSIONI
 10
-0.9285712778097468
 20
47.17572822415649
 30
0.0
  0
VERTEX
  5
1DA
  8
DIMENSIONI
 10
-0.78808455214603
 20
47.1877119999677
 30
0.0
  0
VERTEX
  5
1DB
  8
DIMENSIONI
 10
-0.6745152306121067
 20
47.1803834601447
 30
0.0
  0
VERTEX
  5
1DC
  8
DIMENSIONI
 10
-0.563895761585558
 20
47.15839784067567
 30
0.0
  0
VERTEX
  5
1DD
  8
DIMENSIONI
 10
-0.4562261450663839
 20
47.12175514156063
 30
0.0
  0
VERTEX
  5
1DE
  8
DIMENSIONI
 10
-0.3515063810545844
 20
47.07045536279956
 30
0.0
  0
VERTEX
  5
1DF
  8
DIMENSIONI
 10
-0.2497364695501597
 20
47.00449850439249
 30
0.0
  0
VERTEX
  5
1E0
  8
DIMENSIONI
 10
-0.1509164105531096
 20
46.92388456633939
 30
0.0
  0
VERTEX
  5
1E1
  8
DIMENSIONI
 10
-0.0550462040634341
 20
46.82861354864028
 30
0.0
  0
VERTEX
  5
1E2
  8
DIMENSIONI
 10
0.0378741499188666
 20
46.71868545129514
 30
0.0
  0
VERTEX
  5
1E3
  8
DIMENSIONI
 10
0.1450367605383358
 20
46.56695241294706
 30
0.0
  0
VERTEX
  5
1E4
  8
DIMENSIONI
 10
0.237911023075209
 20
46.40231376987921
 30
0.0
  0
VERTEX
  5
1E5
  8
DIMENSIONI
 10
0.3164969375294864
 20
46.22476952209161
 30
0.0
  0
VERTEX
  5
1E6
  8
DIMENSIONI
 10
0.3807945039011678
 20
46.03431966958423
 30
0.0
  0
VERTEX
  5
1E7
  8
DIMENSIONI
 10
0.4308037221902534
 20
45.83096421235709
 30
0.0
  0
VERTEX
  5
1E8
  8
DIMENSIONI
 10
0.4665245923967431
 20
45.61470315041019
 30
0.0
  0
VERTEX
  5
1E9
  8
DIMENSIONI
 10
0.4879571145206369
 20
45.38553648374351
 30
0.0
  0
VERTEX
  5
1EA
  8
DIMENSIONI
 10
0.4951012885619348
 20
45.14346421235708
 30
0.0
  0
VERTEX
  5
1EB
  8
DIMENSIONI
 10
0.4825644154055926
 20
44.80847158698835
 30
0.0
  0
VERTEX
  5
1EC
  8
DIMENSIONI
 10
0.444953795936566
 20
44.49965890262257
 30
0.0
  0
VERTEX
  5
1ED
  8
DIMENSIONI
 10
0.416745831334796
 20
44.35507003831579
 30
0.0
  0
VERTEX
  5
1EE
  8
DIMENSIONI
 10
0.382269430154855
 20
44.21702615925974
 30
0.0
  0
VERTEX
  5
1EF
  8
DIMENSIONI
 10
0.3415245923967429
 20
44.08552726545443
 30
0.0
  0
VERTEX
  5
1F0
  8
DIMENSIONI
 10
0.2945113180604597
 20
43.96057335689986
 30
0.0
  0
VERTEX
  5
1F1
  8
DIMENSIONI
 10
0.187302615995563
 20
43.73389562828629
 30
0.0
  0
VERTEX
  5
1F2
  8
DIMENSIONI
 10
0.0662664803023477
 20
43.5405881061624
 30
0.0
  0
VERTEX
  5
1F3
  8
DIMENSIONI
 10
0.0005631248451206
 20
43.45644817253408
 30
0.0
  0
VERTEX
  5
1F4
  8
DIMENSIONI
 10
-0.0685970890191862
 20
43.38065079052818
 30
0.0
  0
VERTEX
  5
1F5
  8
DIMENSIONI
 10
-0.1412141612905728
 20
43.31319596014469
 30
0.0
  0
VERTEX
  5
1F6
  8
DIMENSIONI
 10
-0.217288091969039
 20
43.25408368138363
 30
0.0
  0
VERTEX
  5
1F7
  8
DIMENSIONI
 10
-0.3715100683702188
 20
43.15793692622139
 30
0.0
  0
VERTEX
  5
1F8
  8
DIMENSIONI
 10
-0.522966558045735
 20
43.08926067253407
 30
0.0
  0
VERTEX
  5
1F9
  8
DIMENSIONI
 10
-0.6716575609955875
 20
43.04805492032168
 30
0.0
  0
VERTEX
  5
1FA
  8
DIMENSIONI
 10
-0.8175830772197763
 20
43.03431966958422
 30
0.0
  0
VERTEX
  5
1FB
  8
DIMENSIONI
 10
-0.9576549798746435
 20
43.04487461058717
 30
0.0
  0
VERTEX
  5
1FC
  8
DIMENSIONI
 10
-1.091734994623906
 20
43.07653943359602
 30
0.0
  0
VERTEX
  5
1FD
  8
DIMENSIONI
 10
-1.219823121467564
 20
43.12931413861077
 30
0.0
  0
VERTEX
  5
1FE
  8
DIMENSIONI
 10
-1.341919360405617
 20
43.20319872563142
 30
0.0
  0
VERTEX
  5
1FF
  8
DIMENSIONI
 10
-1.458023711438065
 20
43.29819319465797
 30
0.0
  0
VERTEX
  5
200
  8
DIMENSIONI
 10
-1.568136174564909
 20
43.41429754569042
 30
0.0
  0
VERTEX
  5
201
  8
DIMENSIONI
 10
-1.672256749786148
 20
43.55151177872877
 30
0.0
  0
VERTEX
  5
202
  8
DIMENSIONI
 10
-1.770385437101782
 20
43.70983589377301
 30
0.0
  0
VERTEX
  5
203
  8
DIMENSIONI
 10
-1.845744950376119
 20
43.85580750144263
 30
0.0
  0
VERTEX
  5
204
  8
DIMENSIONI
 10
-1.91105652854721
 20
44.00906155748983
 30
0.0
  0
VERTEX
  5
205
  8
DIMENSIONI
 10
-1.966320171615056
 20
44.16959806191461
 30
0.0
  0
VERTEX
  5
206
  8
DIMENSIONI
 10
-2.011535879579658
 20
44.33741701471696
 30
0.0
  0
VERTEX
  5
207
  8
DIMENSIONI
 10
-2.046703652441016
 20
44.51251841589691
 30
0.0
  0
VERTEX
  5
208
  8
DIMENSIONI
 10
-2.071823490199128
 20
44.69490226545443
 30
0.0
  0
VERTEX
  5
209
  8
DIMENSIONI
 10
-2.086895392853995
 20
44.88456856338954
 30
0.0
  0
SEQEND
  5
837
  8
DIMENSIONI
  0
POLYLINE
  5
86
  8
DIMENSIONI
 66
     1
 10
0.0
 20
0.0
 30
0.0
 70
     1
  0
VERTEX
  5
20A
  8
DIMENSIONI
 10
-1.513748268960189
 20
45.00777099701785
 30
0.0
  0
VERTEX
  5
20B
  8
DIMENSIONI
 10
-1.501027030022136
 20
44.61378132150163
 30
0.0
  0
VERTEX
  5
20C
  8
DIMENSIONI
 10
-1.462863313207977
 20
44.25777099701786
 30
0.0
  0
VERTEX
  5
20D
  8
DIMENSIONI
 10
-1.434240525597357
 20
44.09400809141313
 30
0.0
  0
VERTEX
  5
20E
  8
DIMENSIONI
 10
-1.399257118517711
 20
43.93974002356653
 30
0.0
  0
VERTEX
  5
20F
  8
DIMENSIONI
 10
-1.357913091969039
 20
43.79496679347803
 30
0.0
  0
VERTEX
  5
210
  8
DIMENSIONI
 10
-1.31020844595134
 20
43.65968840114765
 30
0.0
  0
VERTEX
  5
211
  8
DIMENSIONI
 10
-1.265591926777298
 20
43.55667402061668
 30
0.0
  0
VERTEX
  5
212
  8
DIMENSIONI
 10
-1.215813165715351
 20
43.46739489082317
 30
0.0
  0
VERTEX
  5
213
  8
DIMENSIONI
 10
-1.160872162765499
 20
43.39185101176712
 30
0.0
  0
VERTEX
  5
214
  8
DIMENSIONI
 10
-1.100768917927741
 20
43.33004238344853
 30
0.0
  0
VERTEX
  5
215
  8
DIMENSIONI
 10
-1.035503431202077
 20
43.28196900586741
 30
0.0
  0
VERTEX
  5
216
  8
DIMENSIONI
 10
-0.9650757025885079
 20
43.24763087902375
 30
0.0
  0
VERTEX
  5
217
  8
DIMENSIONI
 10
-0.8894857320870331
 20
43.22702800291756
 30
0.0
  0
VERTEX
  5
218
  8
DIMENSIONI
 10
-0.8087335196976524
 20
43.22016037754882
 30
0.0
  0
VERTEX
  5
219
  8
DIMENSIONI
 10
-0.7283500388716937
 20
43.2291021179618
 30
0.0
  0
VERTEX
  5
21A
  8
DIMENSIONI
 10
-0.6464916317920477
 20
43.25592733920074
 30
0.0
  0
VERTEX
  5
21B
  8
DIMENSIONI
 10
-0.5631582984587143
 20
43.30063604126563
 30
0.0
  0
VERTEX
  5
21C
  8
DIMENSIONI
 10
-0.4783500388716937
 20
43.36322822415649
 30
0.0
  0
VERTEX
  5
21D
  8
DIMENSIONI
 10
-0.3979665580457349
 20
43.4468381061624
 30
0.0
  0
VERTEX
  5
21E
  8
DIMENSIONI
 10
-0.3279075609955874
 20
43.55459990557242
 30
0.0
  0
VERTEX
  5
21F
  8
DIMENSIONI
 10
-0.2681730477212511
 20
43.68651362238658
 30
0.0
  0
VERTEX
  5
220
  8
DIMENSIONI
 10
-0.218763018222726
 20
43.84257925660487
 30
0.0
  0
VERTEX
  5
221
  8
DIMENSIONI
 10
-0.1593972365118118
 20
44.12226214746033
 30
0.0
  0
VERTEX
  5
222
  8
DIMENSIONI
 10
-0.1169931067183014
 20
44.45393618875826
 30
0.0
  0
VERTEX
  5
223
  8
DIMENSIONI
 10
-0.0915506288421952
 20
44.83760138049868
 30
0.0
  0
VERTEX
  5
224
  8
DIMENSIONI
 10
-0.0830698028834931
 20
45.27325772268157
 30
0.0
  0
VERTEX
  5
225
  8
DIMENSIONI
 10
-0.091919360405617
 20
45.60124444834528
 30
0.0
  0
VERTEX
  5
226
  8
DIMENSIONI
 10
-0.1184680329719888
 20
45.90083884362552
 30
0.0
  0
VERTEX
  5
227
  8
DIMENSIONI
 10
-0.1627158205826083
 20
46.17204090852228
 30
0.0
  0
VERTEX
  5
228
  8
DIMENSIONI
 10
-0.2246627232374756
 20
46.41485064303555
 30
0.0
  0
VERTEX
  5
229
  8
DIMENSIONI
 10
-0.281631749786148
 20
46.57211465483496
 30
0.0
  0
VERTEX
  5
22A
  8
DIMENSIONI
 10
-0.3463441391666789
 20
46.7046736518851
 30
0.0
  0
VERTEX
  5
22B
  8
DIMENSIONI
 10
-0.4187998913790683
 20
46.81252763418598
 30
0.0
  0
VERTEX
  5
22C
  8
DIMENSIONI
 10
-0.4989990064233161
 20
46.89567660173761
 30
0.0
  0
VERTEX
  5
22D
  8
DIMENSIONI
 10
-0.5626052011135816
 20
46.93826509731284
 30
0.0
  0
VERTEX
  5
22E
  8
DIMENSIONI
 10
-0.6324798323820182
 20
46.96868545129514
 30
0.0
  0
VERTEX
  5
22F
  8
DIMENSIONI
 10
-0.7086229002286258
 20
46.98693766368451
 30
0.0
  0
VERTEX
  5
230
  8
DIMENSIONI
 10
-0.7910344046534046
 20
46.99302173448098
 30
0.0
  0
VERTEX
  5
231
  8
DIMENSIONI
 10
-0.8885639031784782
 20
46.98177542179661
 30
0.0
  0
VERTEX
  5
232
  8
DIMENSIONI
 10
-0.9805624282522246
 20
46.94803648374351
 30
0.0
  0
VERTEX
  5
233
  8
DIMENSIONI
 10
-1.067029979874643
 20
46.89180492032169
 30
0.0
  0
VERTEX
  5
234
  8
DIMENSIONI
 10
-1.147966558045735
 20
46.81308073153112
 30
0.0
  0
VERTEX
  5
235
  8
DIMENSIONI
 10
-1.198943696688803
 20
46.74749260468747
 30
0.0
  0
VERTEX
  5
236
  8
DIMENSIONI
 10
-1.24568042235252
 20
46.67314710321254
 30
0.0
  0
VERTEX
  5
237
  8
DIMENSIONI
 10
-1.288176735036886
 20
46.59004422710635
 30
0.0
  0
VERTEX
  5
238
  8
DIMENSIONI
 10
-1.3264326347419
 20
46.49818397636889
 30
0.0
  0
VERTEX
  5
239
  8
DIMENSIONI
 10
-1.390223195213876
 20
46.28819135100015
 30
0.0
  0
VERTEX
  5
23A
  8
DIMENSIONI
 10
-1.437052103768449
 20
46.04316922710635
 30
0.0
  0
VERTEX
  5
23B
  8
DIMENSIONI
 10
-1.470606676039835
 20
45.78155418285856
 30
0.0
  0
VERTEX
  5
23C
  8
DIMENSIONI
 10
-1.494574227662254
 20
45.52178279642789
 30
0.0
  0
VERTEX
  5
23D
  8
DIMENSIONI
 10
-1.508954758635705
 20
45.2638550678143
 30
0.0
  0
SEQEND
  5
838
  8
DIMENSIONI
  0
POLYLINE
  5
87
  8
DIMENSIONI
 66
     1
 10
0.0
 20
0.0
 30
0.0
 70
     1
  0
VERTEX
  5
23E
  8
DIMENSIONI
 10
1.465602763488188
 20
43.67738751619189
 30
0.0
  0
VERTEX
  5
23F
  8
DIMENSIONI
 10
1.532158810685828
 20
43.67139562828629
 30
0.0
  0
VERTEX
  5
240
  8
DIMENSIONI
 10
1.593183884432141
 20
43.65341996456947
 30
0.0
  0
VERTEX
  5
241
  8
DIMENSIONI
 10
1.648677984727126
 20
43.62346052504144
 30
0.0
  0
VERTEX
  5
242
  8
DIMENSIONI
 10
1.698641111570784
 20
43.58151730970221
 30
0.0
  0
VERTEX
  5
243
  8
DIMENSIONI
 10
1.739939046674029
 20
43.53109326840428
 30
0.0
  0
VERTEX
  5
244
  8
DIMENSIONI
 10
1.769437571747775
 20
43.47569135100015
 30
0.0
  0
VERTEX
  5
245
  8
DIMENSIONI
 10
1.787136686792023
 20
43.41531155748983
 30
0.0
  0
VERTEX
  5
246
  8
DIMENSIONI
 10
1.793036391806772
 20
43.34995388787331
 30
0.0
  0
VERTEX
  5
247
  8
DIMENSIONI
 10
1.787044503901167
 20
43.28459621825679
 30
0.0
  0
VERTEX
  5
248
  8
DIMENSIONI
 10
1.769068840184353
 20
43.22421642474647
 30
0.0
  0
VERTEX
  5
249
  8
DIMENSIONI
 10
1.739109400656329
 20
43.16881450734233
 30
0.0
  0
VERTEX
  5
24A
  8
DIMENSIONI
 10
1.697166185317097
 20
43.1183904660444
 30
0.0
  0
VERTEX
  5
24B
  8
DIMENSIONI
 10
1.646742144019161
 20
43.07644725070517
 30
0.0
  0
VERTEX
  5
24C
  8
DIMENSIONI
 10
1.591340226615031
 20
43.04648781117714
 30
0.0
  0
VERTEX
  5
24D
  8
DIMENSIONI
 10
1.530960433104707
 20
43.02851214746033
 30
0.0
  0
VERTEX
  5
24E
  8
DIMENSIONI
 10
1.465602763488188
 20
43.02252025955472
 30
0.0
  0
VERTEX
  5
24F
  8
DIMENSIONI
 10
1.400245093871669
 20
43.02851214746033
 30
0.0
  0
VERTEX
  5
250
  8
DIMENSIONI
 10
1.339865300361344
 20
43.04648781117714
 30
0.0
  0
VERTEX
  5
251
  8
DIMENSIONI
 10
1.284463382957214
 20
43.07644725070517
 30
0.0
  0
VERTEX
  5
252
  8
DIMENSIONI
 10
1.234039341659279
 20
43.1183904660444
 30
0.0
  0
VERTEX
  5
253
  8
DIMENSIONI
 10
1.192096126320046
 20
43.16881450734233
 30
0.0
  0
VERTEX
  5
254
  8
DIMENSIONI
 10
1.162136686792023
 20
43.22421642474647
 30
0.0
  0
VERTEX
  5
255
  8
DIMENSIONI
 10
1.144161023075208
 20
43.28459621825679
 30
0.0
  0
VERTEX
  5
256
  8
DIMENSIONI
 10
1.138169135169604
 20
43.34995388787331
 30
0.0
  0
VERTEX
  5
257
  8
DIMENSIONI
 10
1.144161023075208
 20
43.41650993507095
 30
0.0
  0
VERTEX
  5
258
  8
DIMENSIONI
 10
1.162136686792023
 20
43.47753500881726
 30
0.0
  0
VERTEX
  5
259
  8
DIMENSIONI
 10
1.192096126320046
 20
43.53302910911224
 30
0.0
  0
VERTEX
  5
25A
  8
DIMENSIONI
 10
1.234039341659279
 20
43.58299223595591
 30
0.0
  0
VERTEX
  5
25B
  8
DIMENSIONI
 10
1.284463382957214
 20
43.62429017105916
 30
0.0
  0
VERTEX
  5
25C
  8
DIMENSIONI
 10
1.339865300361344
 20
43.6537886961329
 30
0.0
  0
VERTEX
  5
25D
  8
DIMENSIONI
 10
1.400245093871669
 20
43.67148781117714
 30
0.0
  0
SEQEND
  5
839
  8
DIMENSIONI
  0
POLYLINE
  5
88
  8
DIMENSIONI
 66
     1
 10
0.0
 20
0.0
 30
0.0
 70
     1
  0
VERTEX
  5
25E
  8
DIMENSIONI
 10
2.439054090921815
 20
45.08151730970221
 30
0.0
  0
VERTEX
  5
25F
  8
DIMENSIONI
 10
2.45195969564158
 20
45.41180860763733
 30
0.0
  0
VERTEX
  5
260
  8
DIMENSIONI
 10
2.490676509800872
 20
45.71831671973172
 30
0.0
  0
VERTEX
  5
261
  8
DIMENSIONI
 10
2.519714120420341
 20
45.86265208108864
 30
0.0
  0
VERTEX
  5
262
  8
DIMENSIONI
 10
2.555204533399692
 20
46.0010416459854
 30
0.0
  0
VERTEX
  5
263
  8
DIMENSIONI
 10
2.597147748738925
 20
46.13348541442198
 30
0.0
  0
VERTEX
  5
264
  8
DIMENSIONI
 10
2.64554376643804
 20
46.25998338639838
 30
0.0
  0
VERTEX
  5
265
  8
DIMENSIONI
 10
2.757269430154854
 20
46.49127025955472
 30
0.0
  0
VERTEX
  5
266
  8
DIMENSIONI
 10
2.819492881482288
 20
46.59509124038068
 30
0.0
  0
VERTEX
  5
267
  8
DIMENSIONI
 10
2.885956745789072
 20
46.6910305840385
 30
0.0
  0
VERTEX
  5
268
  8
DIMENSIONI
 10
2.956661023075208
 20
46.77908829052818
 30
0.0
  0
VERTEX
  5
269
  8
DIMENSIONI
 10
3.031605713340694
 20
46.85926435984972
 30
0.0
  0
VERTEX
  5
26A
  8
DIMENSIONI
 10
3.110790816585532
 20
46.93155879200311
 30
0.0
  0
VERTEX
  5
26B
  8
DIMENSIONI
 10
3.194216332809721
 20
46.99597158698835
 30
0.0
  0
VERTEX
  5
26C
  8
DIMENSIONI
 10
3.328065890331845
 20
47.07985801766682
 30
0.0
  0
VERTEX
  5
26D
  8
DIMENSIONI
 10
3.4641278372345
 20
47.13977689672287
 30
0.0
  0
VERTEX
  5
26E
  8
DIMENSIONI
 10
3.602402173517686
 20
47.17572822415649
 30
0.0
  0
VERTEX
  5
26F
  8
DIMENSIONI
 10
3.742888899181403
 20
47.1877119999677
 30
0.0
  0
VERTEX
  5
270
  8
DIMENSIONI
 10
3.856458220715326
 20
47.1803834601447
 30
0.0
  0
VERTEX
  5
271
  8
DIMENSIONI
 10
3.967077689741874
 20
47.15839784067567
 30
0.0
  0
VERTEX
  5
272
  8
DIMENSIONI
 10
4.074747306261048
 20
47.12175514156063
 30
0.0
  0
VERTEX
  5
273
  8
DIMENSIONI
 10
4.179467070272848
 20
47.07045536279956
 30
0.0
  0
VERTEX
  5
274
  8
DIMENSIONI
 10
4.281236981777273
 20
47.00449850439249
 30
0.0
  0
VERTEX
  5
275
  8
DIMENSIONI
 10
4.380057040774322
 20
46.92388456633939
 30
0.0
  0
VERTEX
  5
276
  8
DIMENSIONI
 10
4.475927247263998
 20
46.82861354864028
 30
0.0
  0
VERTEX
  5
277
  8
DIMENSIONI
 10
4.568847601246299
 20
46.71868545129514
 30
0.0
  0
VERTEX
  5
278
  8
DIMENSIONI
 10
4.676010211865768
 20
46.56695241294706
 30
0.0
  0
VERTEX
  5
279
  8
DIMENSIONI
 10
4.768884474402642
 20
46.40231376987921
 30
0.0
  0
VERTEX
  5
27A
  8
DIMENSIONI
 10
4.847470388856919
 20
46.22476952209161
 30
0.0
  0
VERTEX
  5
27B
  8
DIMENSIONI
 10
4.9117679552286
 20
46.03431966958423
 30
0.0
  0
VERTEX
  5
27C
  8
DIMENSIONI
 10
4.961777173517685
 20
45.83096421235709
 30
0.0
  0
VERTEX
  5
27D
  8
DIMENSIONI
 10
4.997498043724175
 20
45.61470315041019
 30
0.0
  0
VERTEX
  5
27E
  8
DIMENSIONI
 10
5.018930565848069
 20
45.38553648374351
 30
0.0
  0
VERTEX
  5
27F
  8
DIMENSIONI
 10
5.026074739889367
 20
45.14346421235708
 30
0.0
  0
VERTEX
  5
280
  8
DIMENSIONI
 10
5.013537866733025
 20
44.80847158698835
 30
0.0
  0
VERTEX
  5
281
  8
DIMENSIONI
 10
4.975927247263998
 20
44.49965890262257
 30
0.0
  0
VERTEX
  5
282
  8
DIMENSIONI
 10
4.947719282662229
 20
44.35507003831579
 30
0.0
  0
VERTEX
  5
283
  8
DIMENSIONI
 10
4.913242881482287
 20
44.21702615925974
 30
0.0
  0
VERTEX
  5
284
  8
DIMENSIONI
 10
4.872498043724176
 20
44.08552726545443
 30
0.0
  0
VERTEX
  5
285
  8
DIMENSIONI
 10
4.825484769387892
 20
43.96057335689986
 30
0.0
  0
VERTEX
  5
286
  8
DIMENSIONI
 10
4.718276067322996
 20
43.73389562828629
 30
0.0
  0
VERTEX
  5
287
  8
DIMENSIONI
 10
4.597239931629781
 20
43.5405881061624
 30
0.0
  0
VERTEX
  5
288
  8
DIMENSIONI
 10
4.531536576172554
 20
43.45644817253408
 30
0.0
  0
VERTEX
  5
289
  8
DIMENSIONI
 10
4.462376362308246
 20
43.38065079052818
 30
0.0
  0
VERTEX
  5
28A
  8
DIMENSIONI
 10
4.38975929003686
 20
43.31319596014469
 30
0.0
  0
VERTEX
  5
28B
  8
DIMENSIONI
 10
4.313685359358393
 20
43.25408368138363
 30
0.0
  0
VERTEX
  5
28C
  8
DIMENSIONI
 10
4.159463382957213
 20
43.15793692622139
 30
0.0
  0
VERTEX
  5
28D
  8
DIMENSIONI
 10
4.008006893281697
 20
43.08926067253407
 30
0.0
  0
VERTEX
  5
28E
  8
DIMENSIONI
 10
3.859315890331845
 20
43.04805492032168
 30
0.0
  0
VERTEX
  5
28F
  8
DIMENSIONI
 10
3.713390374107656
 20
43.03431966958422
 30
0.0
  0
VERTEX
  5
290
  8
DIMENSIONI
 10
3.573318471452789
 20
43.04487461058717
 30
0.0
  0
VERTEX
  5
291
  8
DIMENSIONI
 10
3.439238456703527
 20
43.07653943359602
 30
0.0
  0
VERTEX
  5
292
  8
DIMENSIONI
 10
3.311150329859869
 20
43.12931413861077
 30
0.0
  0
VERTEX
  5
293
  8
DIMENSIONI
 10
3.189054090921816
 20
43.20319872563142
 30
0.0
  0
VERTEX
  5
294
  8
DIMENSIONI
 10
3.072949739889367
 20
43.29819319465797
 30
0.0
  0
VERTEX
  5
295
  8
DIMENSIONI
 10
2.962837276762524
 20
43.41429754569042
 30
0.0
  0
VERTEX
  5
296
  8
DIMENSIONI
 10
2.858716701541284
 20
43.55151177872877
 30
0.0
  0
VERTEX
  5
297
  8
DIMENSIONI
 10
2.76058801422565
 20
43.70983589377301
 30
0.0
  0
VERTEX
  5
298
  8
DIMENSIONI
 10
2.685228500951314
 20
43.85580750144263
 30
0.0
  0
VERTEX
  5
299
  8
DIMENSIONI
 10
2.619916922780223
 20
44.00906155748983
 30
0.0
  0
VERTEX
  5
29A
  8
DIMENSIONI
 10
2.564653279712376
 20
44.16959806191461
 30
0.0
  0
VERTEX
  5
29B
  8
DIMENSIONI
 10
2.519437571747774
 20
44.33741701471696
 30
0.0
  0
VERTEX
  5
29C
  8
DIMENSIONI
 10
2.484269798886417
 20
44.51251841589691
 30
0.0
  0
VERTEX
  5
29D
  8
DIMENSIONI
 10
2.459149961128305
 20
44.69490226545443
 30
0.0
  0
VERTEX
  5
29E
  8
DIMENSIONI
 10
2.444078058473438
 20
44.88456856338954
 30
0.0
  0
SEQEND
  5
83A
  8
DIMENSIONI
  0
POLYLINE
  5
89
  8
DIMENSIONI
 66
     1
 10
0.0
 20
0.0
 30
0.0
 70
     1
  0
VERTEX
  5
29F
  8
DIMENSIONI
 10
3.017225182367243
 20
45.00777099701785
 30
0.0
  0
VERTEX
  5
2A0
  8
DIMENSIONI
 10
3.029946421305296
 20
44.61378132150163
 30
0.0
  0
VERTEX
  5
2A1
  8
DIMENSIONI
 10
3.068110138119456
 20
44.25777099701786
 30
0.0
  0
VERTEX
  5
2A2
  8
DIMENSIONI
 10
3.096732925730076
 20
44.09400809141313
 30
0.0
  0
VERTEX
  5
2A3
  8
DIMENSIONI
 10
3.131716332809722
 20
43.93974002356653
 30
0.0
  0
VERTEX
  5
2A4
  8
DIMENSIONI
 10
3.173060359358394
 20
43.79496679347803
 30
0.0
  0
VERTEX
  5
2A5
  8
DIMENSIONI
 10
3.220765005376093
 20
43.65968840114765
 30
0.0
  0
VERTEX
  5
2A6
  8
DIMENSIONI
 10
3.265381524550134
 20
43.55667402061668
 30
0.0
  0
VERTEX
  5
2A7
  8
DIMENSIONI
 10
3.315160285612081
 20
43.46739489082317
 30
0.0
  0
VERTEX
  5
2A8
  8
DIMENSIONI
 10
3.370101288561933
 20
43.39185101176712
 30
0.0
  0
VERTEX
  5
2A9
  8
DIMENSIONI
 10
3.430204533399692
 20
43.33004238344853
 30
0.0
  0
VERTEX
  5
2AA
  8
DIMENSIONI
 10
3.495470020125355
 20
43.28196900586741
 30
0.0
  0
VERTEX
  5
2AB
  8
DIMENSIONI
 10
3.565897748738925
 20
43.24763087902375
 30
0.0
  0
VERTEX
  5
2AC
  8
DIMENSIONI
 10
3.6414877192404
 20
43.22702800291756
 30
0.0
  0
VERTEX
  5
2AD
  8
DIMENSIONI
 10
3.722239931629781
 20
43.22016037754882
 30
0.0
  0
VERTEX
  5
2AE
  8
DIMENSIONI
 10
3.802623412455739
 20
43.2291021179618
 30
0.0
  0
VERTEX
  5
2AF
  8
DIMENSIONI
 10
3.884481819535385
 20
43.25592733920074
 30
0.0
  0
VERTEX
  5
2B0
  8
DIMENSIONI
 10
3.967815152868718
 20
43.30063604126563
 30
0.0
  0
VERTEX
  5
2B1
  8
DIMENSIONI
 10
4.052623412455739
 20
43.36322822415649
 30
0.0
  0
VERTEX
  5
2B2
  8
DIMENSIONI
 10
4.133006893281698
 20
43.4468381061624
 30
0.0
  0
VERTEX
  5
2B3
  8
DIMENSIONI
 10
4.203065890331845
 20
43.55459990557242
 30
0.0
  0
VERTEX
  5
2B4
  8
DIMENSIONI
 10
4.262800403606182
 20
43.68651362238658
 30
0.0
  0
VERTEX
  5
2B5
  8
DIMENSIONI
 10
4.312210433104706
 20
43.84257925660487
 30
0.0
  0
VERTEX
  5
2B6
  8
DIMENSIONI
 10
4.371576214815621
 20
44.12226214746033
 30
0.0
  0
VERTEX
  5
2B7
  8
DIMENSIONI
 10
4.413980344609131
 20
44.45393618875826
 30
0.0
  0
VERTEX
  5
2B8
  8
DIMENSIONI
 10
4.439422822485238
 20
44.83760138049868
 30
0.0
  0
VERTEX
  5
2B9
  8
DIMENSIONI
 10
4.44790364844394
 20
45.27325772268157
 30
0.0
  0
VERTEX
  5
2BA
  8
DIMENSIONI
 10
4.439054090921815
 20
45.60124444834528
 30
0.0
  0
VERTEX
  5
2BB
  8
DIMENSIONI
 10
4.412505418355444
 20
45.90083884362552
 30
0.0
  0
VERTEX
  5
2BC
  8
DIMENSIONI
 10
4.368257630744825
 20
46.17204090852228
 30
0.0
  0
VERTEX
  5
2BD
  8
DIMENSIONI
 10
4.306310728089957
 20
46.41485064303555
 30
0.0
  0
VERTEX
  5
2BE
  8
DIMENSIONI
 10
4.249341701541285
 20
46.57211465483496
 30
0.0
  0
VERTEX
  5
2BF
  8
DIMENSIONI
 10
4.184629312160754
 20
46.7046736518851
 30
0.0
  0
VERTEX
  5
2C0
  8
DIMENSIONI
 10
4.112173559948365
 20
46.81252763418598
 30
0.0
  0
VERTEX
  5
2C1
  8
DIMENSIONI
 10
4.031974444904117
 20
46.89567660173761
 30
0.0
  0
VERTEX
  5
2C2
  8
DIMENSIONI
 10
3.968368250213851
 20
46.93826509731284
 30
0.0
  0
VERTEX
  5
2C3
  8
DIMENSIONI
 10
3.898493618945414
 20
46.96868545129514
 30
0.0
  0
VERTEX
  5
2C4
  8
DIMENSIONI
 10
3.822350551098807
 20
46.98693766368451
 30
0.0
  0
VERTEX
  5
2C5
  8
DIMENSIONI
 10
3.739939046674028
 20
46.99302173448098
 30
0.0
  0
VERTEX
  5
2C6
  8
DIMENSIONI
 10
3.642409548148954
 20
46.98177542179661
 30
0.0
  0
VERTEX
  5
2C7
  8
DIMENSIONI
 10
3.550411023075208
 20
46.94803648374351
 30
0.0
  0
VERTEX
  5
2C8
  8
DIMENSIONI
 10
3.463943471452789
 20
46.89180492032169
 30
0.0
  0
VERTEX
  5
2C9
  8
DIMENSIONI
 10
3.383006893281697
 20
46.81308073153112
 30
0.0
  0
VERTEX
  5
2CA
  8
DIMENSIONI
 10
3.33202975463863
 20
46.74749260468747
 30
0.0
  0
VERTEX
  5
2CB
  8
DIMENSIONI
 10
3.285293028974912
 20
46.67314710321254
 30
0.0
  0
VERTEX
  5
2CC
  8
DIMENSIONI
 10
3.242796716290547
 20
46.59004422710635
 30
0.0
  0
VERTEX
  5
2CD
  8
DIMENSIONI
 10
3.204540816585532
 20
46.49818397636889
 30
0.0
  0
VERTEX
  5
2CE
  8
DIMENSIONI
 10
3.140750256113556
 20
46.28819135100015
 30
0.0
  0
VERTEX
  5
2CF
  8
DIMENSIONI
 10
3.093921347558984
 20
46.04316922710635
 30
0.0
  0
VERTEX
  5
2D0
  8
DIMENSIONI
 10
3.060366775287597
 20
45.78155418285856
 30
0.0
  0
VERTEX
  5
2D1
  8
DIMENSIONI
 10
3.036399223665178
 20
45.52178279642789
 30
0.0
  0
VERTEX
  5
2D2
  8
DIMENSIONI
 10
3.022018692691727
 20
45.2638550678143
 30
0.0
  0
SEQEND
  5
83B
  8
DIMENSIONI
  0
POLYLINE
  5
8A
  8
DIMENSIONI
 66
     1
 10
0.0
 20
0.0
 30
0.0
  0
VERTEX
  5
2D3
  8
DIMENSIONI
 10
-36.73344362145456
 20
45.28408047801404
 30
0.0
  0
VERTEX
  5
2D4
  8
DIMENSIONI
 10
-5.465075702588507
 20
45.20211742481676
 30
0.0
  0
SEQEND
  5
83C
  8
DIMENSIONI
  0
POLYLINE
  5
8B
  8
DIMENSIONI
 66
     1
 10
0.0
 20
0.0
 30
0.0
  0
VERTEX
  5
2D5
  8
DIMENSIONI
 10
5.526074739889367
 20
45.17330657511864
 30
0.0
  0
VERTEX
  5
2D6
  8
DIMENSIONI
 10
36.79444265875541
 20
45.09134352192137
 30
0.0
  0
SEQEND
  5
83D
  8
DIMENSIONI
  0
POLYLINE
  5
8C
  8
DIMENSIONI
 66
     1
 10
0.0
 20
0.0
 30
0.0
  0
VERTEX
  5
2D7
  8
DIMENSIONI
 10
-39.99344683005014
 20
36.15718790393226
 30
0.0
  0
VERTEX
  5
2D8
  8
DIMENSIONI
 10
-39.96425794538969
 20
47.29255620832676
 30
0.0
  0
SEQEND
  5
83E
  8
DIMENSIONI
  0
POLYLINE
  5
8D
  8
DIMENSIONI
 66
     1
 10
0.0
 20
0.0
 30
0.0
  0
VERTEX
  5
2D9
  8
DIMENSIONI
 10
40.00655316994986
 20
35.94748574509889
 30
0.0
  0
VERTEX
  5
2DA
  8
DIMENSIONI
 10
40.03574205461031
 20
47.08285404949339
 30
0.0
  0
SEQEND
  5
83F
  8
DIMENSIONI
  0
POLYLINE
  5
8E
  8
DIMENSIONI
 66
     1
 10
0.0
 20
0.0
 30
0.0
  0
VERTEX
  5
2DB
  8
DIMENSIONI
 10
-39.96950048134958
 20
45.29256307938439
 30
0.0
  0
VERTEX
  5
2DC
  8
DIMENSIONI
 10
-36.73606488943451
 20
44.28408391354285
 30
0.0
  0
SEQEND
  5
840
  8
DIMENSIONI
  0
POLYLINE
  5
8F
  8
DIMENSIONI
 66
     1
 10
0.0
 20
0.0
 30
0.0
  0
VERTEX
  5
2DD
  8
DIMENSIONI
 10
-36.73606488943451
 20
44.28408391354285
 30
0.0
  0
VERTEX
  5
2DE
  8
DIMENSIONI
 10
-36.73082235347461
 20
46.28407704248523
 30
0.0
  0
SEQEND
  5
841
  8
DIMENSIONI
  0
POLYLINE
  5
90
  8
DIMENSIONI
 66
     1
 10
0.0
 20
0.0
 30
0.0
  0
VERTEX
  5
2DF
  8
DIMENSIONI
 10
-36.73082235347461
 20
46.28407704248523
 30
0.0
  0
VERTEX
  5
2E0
  8
DIMENSIONI
 10
-39.96950048134958
 20
45.29256307938439
 30
0.0
  0
SEQEND
  5
842
  8
DIMENSIONI
  0
POLYLINE
  5
91
  8
DIMENSIONI
 66
     1
 10
0.0
 20
0.0
 30
0.0
  0
VERTEX
  5
2E1
  8
DIMENSIONI
 10
40.03049951865042
 20
45.08286092055102
 30
0.0
  0
VERTEX
  5
2E2
  8
DIMENSIONI
 10
36.79706392673535
 20
46.09134008639256
 30
0.0
  0
SEQEND
  5
843
  8
DIMENSIONI
  0
POLYLINE
  5
92
  8
DIMENSIONI
 66
     1
 10
0.0
 20
0.0
 30
0.0
  0
VERTEX
  5
2E3
  8
DIMENSIONI
 10
36.79706392673535
 20
46.09134008639256
 30
0.0
  0
VERTEX
  5
2E4
  8
DIMENSIONI
 10
36.79182139077546
 20
44.09134695745018
 30
0.0
  0
SEQEND
  5
844
  8
DIMENSIONI
  0
POLYLINE
  5
93
  8
DIMENSIONI
 66
     1
 10
0.0
 20
0.0
 30
0.0
  0
VERTEX
  5
2E5
  8
DIMENSIONI
 10
36.79182139077546
 20
44.09134695745018
 30
0.0
  0
VERTEX
  5
2E6
  8
DIMENSIONI
 10
40.03049951865042
 20
45.08286092055102
 30
0.0
  0
SEQEND
  5
845
  8
DIMENSIONI
  0
POLYLINE
  5
94
  8
DIMENSIONI
 66
     1
 10
0.0
 20
0.0
 30
0.0
 70
     1
  0
VERTEX
  5
2E7
  8
DIMENSIONI
 10
-2.600294985250319
 20
53.48187999358952
 30
0.0
  0
VERTEX
  5
2E8
  8
DIMENSIONI
 10
-2.600294985250319
 20
53.37273545081666
 30
0.0
  0
VERTEX
  5
2E9
  8
DIMENSIONI
 10
-2.786043510324065
 20
53.34867571630339
 30
0.0
  0
VERTEX
  5
2EA
  8
DIMENSIONI
 10
-2.953908554571853
 20
53.31484459535943
 30
0.0
  0
VERTEX
  5
2EB
  8
DIMENSIONI
 10
-3.103890117993681
 20
53.27124208798481
 30
0.0
  0
VERTEX
  5
2EC
  8
DIMENSIONI
 10
-3.235988200589552
 20
53.21786819417949
 30
0.0
  0
VERTEX
  5
2ED
  8
DIMENSIONI
 10
-3.35877581120902
 20
53.15195742721784
 30
0.0
  0
VERTEX
  5
2EE
  8
DIMENSIONI
 10
-3.480825958701645
 20
53.07074430037418
 30
0.0
  0
VERTEX
  5
2EF
  8
DIMENSIONI
 10
-3.602138643067428
 20
52.97422881364852
 30
0.0
  0
VERTEX
  5
2F0
  8
DIMENSIONI
 10
-3.722713864306366
 20
52.86241096704085
 30
0.0
  0
VERTEX
  5
2F1
  8
DIMENSIONI
 10
-3.837758112093976
 20
52.73953117353052
 30
0.0
  0
VERTEX
  5
2F2
  8
DIMENSIONI
 10
-3.942477876105776
 20
52.60982984609689
 30
0.0
  0
VERTEX
  5
2F3
  8
DIMENSIONI
 10
-4.036873156341764
 20
52.47330698473996
 30
0.0
  0
VERTEX
  5
2F4
  8
DIMENSIONI
 10
-4.120943952801941
 20
52.32996258945973
 30
0.0
  0
VERTEX
  5
2F5
  8
DIMENSIONI
 10
-4.196626106194271
 20
52.17629371040368
 30
0.0
  0
VERTEX
  5
2F6
  8
DIMENSIONI
 10
-4.265855457226721
 20
52.00879739771932
 30
0.0
  0
VERTEX
  5
2F7
  8
DIMENSIONI
 10
-4.328632005899287
 20
51.82747365140663
 30
0.0
  0
VERTEX
  5
2F8
  8
DIMENSIONI
 10
-4.384955752211971
 20
51.63232247146563
 30
0.0
  0
VERTEX
  5
2F9
  8
DIMENSIONI
 10
-4.278714970501056
 20
51.7007682679258
 30
0.0
  0
VERTEX
  5
2FA
  8
DIMENSIONI
 10
-4.172382005899286
 20
51.76008795819129
 30
0.0
  0
VERTEX
  5
2FB
  8
DIMENSIONI
 10
-4.065956858406661
 20
51.81028154226209
 30
0.0
  0
VERTEX
  5
2FC
  8
DIMENSIONI
 10
-3.95943952802318
 20
51.85134902013819
 30
0.0
  0
VERTEX
  5
2FD
  8
DIMENSIONI
 10
-3.852830014748843
 20
51.88329039181961
 30
0.0
  0
VERTEX
  5
2FE
  8
DIMENSIONI
 10
-3.746128318583652
 20
51.90610565730634
 30
0.0
  0
VERTEX
  5
2FF
  8
DIMENSIONI
 10
-3.639334439527604
 20
51.91979481659838
 30
0.0
  0
VERTEX
  5
300
  8
DIMENSIONI
 10
-3.532448377580702
 20
51.92435786969572
 30
0.0
  0
VERTEX
  5
301
  8
DIMENSIONI
 10
-3.43164638643026
 20
51.91919562780781
 30
0.0
  0
VERTEX
  5
302
  8
DIMENSIONI
 10
-3.334255162241469
 20
51.9037089021441
 30
0.0
  0
VERTEX
  5
303
  8
DIMENSIONI
 10
-3.240274705014331
 20
51.87789769270457
 30
0.0
  0
VERTEX
  5
304
  8
DIMENSIONI
 10
-3.149705014748844
 20
51.84176199948923
 30
0.0
  0
VERTEX
  5
305
  8
DIMENSIONI
 10
-3.062546091445009
 20
51.79530182249808
 30
0.0
  0
VERTEX
  5
306
  8
DIMENSIONI
 10
-2.978797935102826
 20
51.73851716173112
 30
0.0
  0
VERTEX
  5
307
  8
DIMENSIONI
 10
-2.898460545722295
 20
51.67140801718834
 30
0.0
  0
VERTEX
  5
308
  8
DIMENSIONI
 10
-2.821533923303416
 20
51.59397438886976
 30
0.0
  0
VERTEX
  5
309
  8
DIMENSIONI
 10
-2.751014011798991
 20
51.50842866615589
 30
0.0
  0
VERTEX
  5
30A
  8
DIMENSIONI
 10
-2.689896755161823
 20
51.41698323842729
 30
0.0
  0
VERTEX
  5
30B
  8
DIMENSIONI
 10
-2.638182153391911
 20
51.31963810568392
 30
0.0
  0
VERTEX
  5
30C
  8
DIMENSIONI
 10
-2.595870206489256
 20
51.21639326792581
 30
0.0
  0
VERTEX
  5
30D
  8
DIMENSIONI
 10
-2.562960914453858
 20
51.10724872515295
 30
0.0
  0
VERTEX
  5
30E
  8
DIMENSIONI
 10
-2.539454277285717
 20
50.99220447736533
 30
0.0
  0
VERTEX
  5
30F
  8
DIMENSIONI
 10
-2.525350294984832
 20
50.87126052456297
 30
0.0
  0
VERTEX
  5
310
  8
DIMENSIONI
 10
-2.520648967551203
 20
50.74441686674587
 30
0.0
  0
VERTEX
  5
311
  8
DIMENSIONI
 10
-2.52539638643026
 20
50.62043087854528
 30
0.0
  0
VERTEX
  5
312
  8
DIMENSIONI
 10
-2.539638643067428
 20
50.49921037707035
 30
0.0
  0
VERTEX
  5
313
  8
DIMENSIONI
 10
-2.563375737462708
 20
50.38075536232109
 30
0.0
  0
VERTEX
  5
314
  8
DIMENSIONI
 10
-2.5966076696161
 20
50.26506583429749
 30
0.0
  0
VERTEX
  5
315
  8
DIMENSIONI
 10
-2.639334439527605
 20
50.15214179299956
 30
0.0
  0
VERTEX
  5
316
  8
DIMENSIONI
 10
-2.691556047197222
 20
50.04198323842728
 30
0.0
  0
VERTEX
  5
317
  8
DIMENSIONI
 10
-2.753272492624951
 20
49.93459017058068
 30
0.0
  0
VERTEX
  5
318
  8
DIMENSIONI
 10
-2.824483775810791
 20
49.82996258945973
 30
0.0
  0
VERTEX
  5
319
  8
DIMENSIONI
 10
-2.919616519173623
 20
49.71242940361902
 30
0.0
  0
VERTEX
  5
31A
  8
DIMENSIONI
 10
-3.022123893804891
 20
49.61056730922374
 30
0.0
  0
VERTEX
  5
31B
  8
DIMENSIONI
 10
-3.132005899704596
 20
49.52437630627389
 30
0.0
  0
VERTEX
  5
31C
  8
DIMENSIONI
 10
-3.249262536872737
 20
49.45385639476946
 30
0.0
  0
VERTEX
  5
31D
  8
DIMENSIONI
 10
-3.373893805309315
 20
49.39900757471046
 30
0.0
  0
VERTEX
  5
31E
  8
DIMENSIONI
 10
-3.50589970501433
 20
49.35982984609689
 30
0.0
  0
VERTEX
  5
31F
  8
DIMENSIONI
 10
-3.645280235987782
 20
49.33632320892875
 30
0.0
  0
VERTEX
  5
320
  8
DIMENSIONI
 10
-3.79203539822967
 20
49.32848766320604
 30
0.0
  0
VERTEX
  5
321
  8
DIMENSIONI
 10
-3.892606932152974
 20
49.33272807618539
 30
0.0
  0
VERTEX
  5
322
  8
DIMENSIONI
 10
-3.989306784660348
 20
49.34544931512345
 30
0.0
  0
VERTEX
  5
323
  8
DIMENSIONI
 10
-4.082134955751794
 20
49.3666513800202
 30
0.0
  0
VERTEX
  5
324
  8
DIMENSIONI
 10
-4.17109144542731
 20
49.39633427087566
 30
0.0
  0
VERTEX
  5
325
  8
DIMENSIONI
 10
-4.256176253686897
 20
49.43449798768981
 30
0.0
  0
VERTEX
  5
326
  8
DIMENSIONI
 10
-4.337389380530555
 20
49.48114253046268
 30
0.0
  0
VERTEX
  5
327
  8
DIMENSIONI
 10
-4.414730825958284
 20
49.53626789919424
 30
0.0
  0
VERTEX
  5
328
  8
DIMENSIONI
 10
-4.488200589970083
 20
49.59987409388451
 30
0.0
  0
VERTEX
  5
329
  8
DIMENSIONI
 10
-4.619561209439109
 20
49.73676568680486
 30
0.0
  0
VERTEX
  5
32A
  8
DIMENSIONI
 10
-4.733407079645599
 20
49.88342866615589
 30
0.0
  0
VERTEX
  5
32B
  8
DIMENSIONI
 10
-4.829738200589552
 20
50.0398630319376
 30
0.0
  0
VERTEX
  5
32C
  8
DIMENSIONI
 10
-4.908554572270968
 20
50.20606878414999
 30
0.0
  0
VERTEX
  5
32D
  8
DIMENSIONI
 10
-4.969856194689847
 20
50.38204592279305
 30
0.0
  0
VERTEX
  5
32E
  8
DIMENSIONI
 10
-5.013643067846189
 20
50.5677944478668
 30
0.0
  0
VERTEX
  5
32F
  8
DIMENSIONI
 10
-5.039915191739994
 20
50.76331435937122
 30
0.0
  0
VERTEX
  5
330
  8
DIMENSIONI
 10
-5.048672566371263
 20
50.96860565730633
 30
0.0
  0
VERTEX
  5
331
  8
DIMENSIONI
 10
-5.035213864306366
 20
51.23372365140663
 30
0.0
  0
VERTEX
  5
332
  8
DIMENSIONI
 10
-4.994837758111675
 20
51.49220447736533
 30
0.0
  0
VERTEX
  5
333
  8
DIMENSIONI
 10
-4.927544247787191
 20
51.74404813518244
 30
0.0
  0
VERTEX
  5
334
  8
DIMENSIONI
 10
-4.833333333332915
 20
51.98925462485796
 30
0.0
  0
VERTEX
  5
335
  8
DIMENSIONI
 10
-4.714140855456808
 20
52.22432099653937
 30
0.0
  0
VERTEX
  5
336
  8
DIMENSIONI
 10
-4.571902654866838
 20
52.44574430037418
 30
0.0
  0
VERTEX
  5
337
  8
DIMENSIONI
 10
-4.406618731563002
 20
52.65352453636238
 30
0.0
  0
VERTEX
  5
338
  8
DIMENSIONI
 10
-4.218289085545304
 20
52.84766170450398
 30
0.0
  0
VERTEX
  5
339
  8
DIMENSIONI
 10
-4.020556784660348
 20
53.01967497884026
 30
0.0
  0
VERTEX
  5
33A
  8
DIMENSIONI
 10
-3.827064896754743
 20
53.16108353341254
 30
0.0
  0
VERTEX
  5
33B
  8
DIMENSIONI
 10
-3.63781342182849
 20
53.27188736822079
 30
0.0
  0
VERTEX
  5
33C
  8
DIMENSIONI
 10
-3.452802359881587
 20
53.35208648326504
 30
0.0
  0
VERTEX
  5
33D
  8
DIMENSIONI
 10
-3.273045722713445
 20
53.408871144032
 30
0.0
  0
VERTEX
  5
33E
  8
DIMENSIONI
 10
-3.099557522123475
 20
53.4494316160084
 30
0.0
  0
VERTEX
  5
33F
  8
DIMENSIONI
 10
-2.932337758111676
 20
53.47376789919424
 30
0.0
  0
VERTEX
  5
340
  8
DIMENSIONI
 10
-2.771386430678048
 20
53.48187999358952
 30
0.0
  0
SEQEND
  5
846
  8
DIMENSIONI
  0
POLYLINE
  5
95
  8
DIMENSIONI
 66
     1
 10
0.0
 20
0.0
 30
0.0
 70
     1
  0
VERTEX
  5
341
  8
DIMENSIONI
 10
-4.43510324483734
 20
51.41698323842728
 30
0.0
  0
VERTEX
  5
342
  8
DIMENSIONI
 10
-4.474926253686897
 20
51.05710123252757
 30
0.0
  0
VERTEX
  5
343
  8
DIMENSIONI
 10
-4.488200589970083
 20
50.77391539181961
 30
0.0
  0
VERTEX
  5
344
  8
DIMENSIONI
 10
-4.481655604719345
 20
50.6292804360674
 30
0.0
  0
VERTEX
  5
345
  8
DIMENSIONI
 10
-4.462020648967132
 20
50.47856140951873
 30
0.0
  0
VERTEX
  5
346
  8
DIMENSIONI
 10
-4.429295722713445
 20
50.32175831217359
 30
0.0
  0
VERTEX
  5
347
  8
DIMENSIONI
 10
-4.383480825958284
 20
50.158871144032
 30
0.0
  0
VERTEX
  5
348
  8
DIMENSIONI
 10
-4.324760324483357
 20
50.00151494934173
 30
0.0
  0
VERTEX
  5
349
  8
DIMENSIONI
 10
-4.253318584070377
 20
49.86130477235058
 30
0.0
  0
VERTEX
  5
34A
  8
DIMENSIONI
 10
-4.169155604719345
 20
49.73824061305854
 30
0.0
  0
VERTEX
  5
34B
  8
DIMENSIONI
 10
-4.072271386430259
 20
49.63232247146563
 30
0.0
  0
VERTEX
  5
34C
  8
DIMENSIONI
 10
-3.992994100294566
 20
49.57166612928273
 30
0.0
  0
VERTEX
  5
34D
  8
DIMENSIONI
 10
-3.905604719763593
 20
49.52834017058067
 30
0.0
  0
VERTEX
  5
34E
  8
DIMENSIONI
 10
-3.81010324483734
 20
49.50234459535943
 30
0.0
  0
VERTEX
  5
34F
  8
DIMENSIONI
 10
-3.706489675515805
 20
49.49367940361902
 30
0.0
  0
VERTEX
  5
350
  8
DIMENSIONI
 10
-3.64318307522082
 20
49.49745890214409
 30
0.0
  0
VERTEX
  5
351
  8
DIMENSIONI
 10
-3.58158185840666
 20
49.50879739771931
 30
0.0
  0
VERTEX
  5
352
  8
DIMENSIONI
 10
-3.521686025073327
 20
49.52769489034468
 30
0.0
  0
VERTEX
  5
353
  8
DIMENSIONI
 10
-3.46349557522082
 20
49.5541513800202
 30
0.0
  0
VERTEX
  5
354
  8
DIMENSIONI
 10
-3.352230825958283
 20
49.62974135052167
 30
0.0
  0
VERTEX
  5
355
  8
DIMENSIONI
 10
-3.24778761061905
 20
49.73556730922374
 30
0.0
  0
VERTEX
  5
356
  8
DIMENSIONI
 10
-3.200428650442059
 20
49.79926568680486
 30
0.0
  0
VERTEX
  5
357
  8
DIMENSIONI
 10
-3.159384218288666
 20
49.86941686674587
 30
0.0
  0
VERTEX
  5
358
  8
DIMENSIONI
 10
-3.124654314158873
 20
49.94602084904675
 30
0.0
  0
VERTEX
  5
359
  8
DIMENSIONI
 10
-3.096238938052678
 20
50.02907763370752
 30
0.0
  0
VERTEX
  5
35A
  8
DIMENSIONI
 10
-3.058351769911085
 20
50.21454961010869
 30
0.0
  0
VERTEX
  5
35B
  8
DIMENSIONI
 10
-3.045722713863888
 20
50.4258327959494
 30
0.0
  0
VERTEX
  5
35C
  8
DIMENSIONI
 10
-3.05825958702023
 20
50.66956435937124
 30
0.0
  0
VERTEX
  5
35D
  8
DIMENSIONI
 10
-3.095870206489256
 20
50.89633427087566
 30
0.0
  0
VERTEX
  5
35E
  8
DIMENSIONI
 10
-3.158554572270968
 20
51.10614253046268
 30
0.0
  0
VERTEX
  5
35F
  8
DIMENSIONI
 10
-3.246312684365363
 20
51.2989891381323
 30
0.0
  0
VERTEX
  5
360
  8
DIMENSIONI
 10
-3.299087389380112
 20
51.38541059830929
 30
0.0
  0
VERTEX
  5
361
  8
DIMENSIONI
 10
-3.357116519173622
 20
51.46030919712935
 30
0.0
  0
VERTEX
  5
362
  8
DIMENSIONI
 10
-3.420400073745894
 20
51.52368493459248
 30
0.0
  0
VERTEX
  5
363
  8
DIMENSIONI
 10
-3.488938053096926
 20
51.57553781069867
 30
0.0
  0
VERTEX
  5
364
  8
DIMENSIONI
 10
-3.56273045722672
 20
51.61586782544794
 30
0.0
  0
VERTEX
  5
365
  8
DIMENSIONI
 10
-3.641777286135274
 20
51.64467497884026
 30
0.0
  0
VERTEX
  5
366
  8
DIMENSIONI
 10
-3.72607853982259
 20
51.66195927087566
 30
0.0
  0
VERTEX
  5
367
  8
DIMENSIONI
 10
-3.815634218288666
 20
51.66772070155412
 30
0.0
  0
VERTEX
  5
368
  8
DIMENSIONI
 10
-3.931784660766542
 20
51.65592129152463
 30
0.0
  0
VERTEX
  5
369
  8
DIMENSIONI
 10
-4.056047197639699
 20
51.62052306143613
 30
0.0
  0
VERTEX
  5
36A
  8
DIMENSIONI
 10
-4.214970501474507
 20
51.54603928562491
 30
0.0
  0
SEQEND
  5
847
  8
DIMENSIONI
  0
POLYLINE
  5
96
  8
DIMENSIONI
 66
     1
 10
0.0
 20
0.0
 30
0.0
 70
     1
  0
VERTEX
  5
36B
  8
DIMENSIONI
 10
-1.679941002949433
 20
53.39928412338303
 30
0.0
  0
VERTEX
  5
36C
  8
DIMENSIONI
 10
0.4646017699119234
 20
53.39928412338303
 30
0.0
  0
VERTEX
  5
36D
  8
DIMENSIONI
 10
0.4646017699119234
 20
53.2871897281028
 30
0.0
  0
VERTEX
  5
36E
  8
DIMENSIONI
 10
-0.8687315634214101
 20
49.31668825317654
 30
0.0
  0
VERTEX
  5
36F
  8
DIMENSIONI
 10
-1.199115044247369
 20
49.31668825317654
 30
0.0
  0
VERTEX
  5
370
  8
DIMENSIONI
 10
-0.0044247787606431
 20
52.91845816468097
 30
0.0
  0
VERTEX
  5
371
  8
DIMENSIONI
 10
-1.104719764011381
 20
52.91845816468097
 30
0.0
  0
VERTEX
  5
372
  8
DIMENSIONI
 10
-1.259402654866838
 20
52.91348028857477
 30
0.0
  0
VERTEX
  5
373
  8
DIMENSIONI
 10
-1.390117994099876
 20
52.89854666025619
 30
0.0
  0
VERTEX
  5
374
  8
DIMENSIONI
 10
-1.496865781710496
 20
52.87365727972522
 30
0.0
  0
VERTEX
  5
375
  8
DIMENSIONI
 10
-1.579646017698696
 20
52.83881214698185
 30
0.0
  0
VERTEX
  5
376
  8
DIMENSIONI
 10
-1.697455752211971
 20
52.7617472502267
 30
0.0
  0
VERTEX
  5
377
  8
DIMENSIONI
 10
-1.803097345132325
 20
52.66624577530044
 30
0.0
  0
VERTEX
  5
378
  8
DIMENSIONI
 10
-1.896570796459758
 20
52.5523077222031
 30
0.0
  0
VERTEX
  5
379
  8
DIMENSIONI
 10
-1.977876106194271
 20
52.41993309093466
 30
0.0
  0
VERTEX
  5
37A
  8
DIMENSIONI
 10
-2.063421828908136
 20
52.45238146851577
 30
0.0
  0
SEQEND
  5
848
  8
DIMENSIONI
  0
POLYLINE
  5
97
  8
DIMENSIONI
 66
     1
 10
0.0
 20
0.0
 30
0.0
 70
     1
  0
VERTEX
  5
37B
  8
DIMENSIONI
 10
1.48820058997092
 20
49.97155550981371
 30
0.0
  0
VERTEX
  5
37C
  8
DIMENSIONI
 10
1.55475663716856
 20
49.9655636219081
 30
0.0
  0
VERTEX
  5
37D
  8
DIMENSIONI
 10
1.615781710914873
 20
49.94758795819129
 30
0.0
  0
VERTEX
  5
37E
  8
DIMENSIONI
 10
1.671275811209858
 20
49.91762851866327
 30
0.0
  0
VERTEX
  5
37F
  8
DIMENSIONI
 10
1.721238938053516
 20
49.87568530332403
 30
0.0
  0
VERTEX
  5
380
  8
DIMENSIONI
 10
1.762536873156761
 20
49.8252612620261
 30
0.0
  0
VERTEX
  5
381
  8
DIMENSIONI
 10
1.792035398230507
 20
49.76985934462197
 30
0.0
  0
VERTEX
  5
382
  8
DIMENSIONI
 10
1.809734513274755
 20
49.70947955111164
 30
0.0
  0
VERTEX
  5
383
  8
DIMENSIONI
 10
1.815634218289504
 20
49.64412188149512
 30
0.0
  0
VERTEX
  5
384
  8
DIMENSIONI
 10
1.8096423303839
 20
49.57876421187861
 30
0.0
  0
VERTEX
  5
385
  8
DIMENSIONI
 10
1.791666666667085
 20
49.51838441836829
 30
0.0
  0
VERTEX
  5
386
  8
DIMENSIONI
 10
1.761707227139062
 20
49.46298250096416
 30
0.0
  0
VERTEX
  5
387
  8
DIMENSIONI
 10
1.719764011799829
 20
49.41255845966622
 30
0.0
  0
VERTEX
  5
388
  8
DIMENSIONI
 10
1.669339970501893
 20
49.37061524432699
 30
0.0
  0
VERTEX
  5
389
  8
DIMENSIONI
 10
1.613938053097764
 20
49.34065580479896
 30
0.0
  0
VERTEX
  5
38A
  8
DIMENSIONI
 10
1.553558259587439
 20
49.32268014108215
 30
0.0
  0
VERTEX
  5
38B
  8
DIMENSIONI
 10
1.48820058997092
 20
49.31668825317654
 30
0.0
  0
VERTEX
  5
38C
  8
DIMENSIONI
 10
1.422842920354401
 20
49.32268014108215
 30
0.0
  0
VERTEX
  5
38D
  8
DIMENSIONI
 10
1.362463126844076
 20
49.34065580479896
 30
0.0
  0
VERTEX
  5
38E
  8
DIMENSIONI
 10
1.307061209439947
 20
49.37061524432699
 30
0.0
  0
VERTEX
  5
38F
  8
DIMENSIONI
 10
1.256637168142011
 20
49.41255845966622
 30
0.0
  0
VERTEX
  5
390
  8
DIMENSIONI
 10
1.214693952802778
 20
49.46298250096416
 30
0.0
  0
VERTEX
  5
391
  8
DIMENSIONI
 10
1.184734513274755
 20
49.51838441836829
 30
0.0
  0
VERTEX
  5
392
  8
DIMENSIONI
 10
1.166758849557941
 20
49.57876421187861
 30
0.0
  0
VERTEX
  5
393
  8
DIMENSIONI
 10
1.160766961652336
 20
49.64412188149512
 30
0.0
  0
VERTEX
  5
394
  8
DIMENSIONI
 10
1.166758849557941
 20
49.71067792869276
 30
0.0
  0
VERTEX
  5
395
  8
DIMENSIONI
 10
1.184734513274755
 20
49.77170300243908
 30
0.0
  0
VERTEX
  5
396
  8
DIMENSIONI
 10
1.214693952802778
 20
49.82719710273406
 30
0.0
  0
VERTEX
  5
397
  8
DIMENSIONI
 10
1.256637168142011
 20
49.87716022957773
 30
0.0
  0
VERTEX
  5
398
  8
DIMENSIONI
 10
1.307061209439947
 20
49.91845816468097
 30
0.0
  0
VERTEX
  5
399
  8
DIMENSIONI
 10
1.362463126844076
 20
49.94795668975471
 30
0.0
  0
VERTEX
  5
39A
  8
DIMENSIONI
 10
1.422842920354401
 20
49.96565580479896
 30
0.0
  0
SEQEND
  5
849
  8
DIMENSIONI
  0
POLYLINE
  5
98
  8
DIMENSIONI
 66
     1
 10
0.0
 20
0.0
 30
0.0
 70
     1
  0
VERTEX
  5
39B
  8
DIMENSIONI
 10
2.461651917404549
 20
51.37568530332403
 30
0.0
  0
VERTEX
  5
39C
  8
DIMENSIONI
 10
2.474557522124313
 20
51.70597660125914
 30
0.0
  0
VERTEX
  5
39D
  8
DIMENSIONI
 10
2.513274336283605
 20
52.01248471335354
 30
0.0
  0
VERTEX
  5
39E
  8
DIMENSIONI
 10
2.542311946903074
 20
52.15682007471047
 30
0.0
  0
VERTEX
  5
39F
  8
DIMENSIONI
 10
2.577802359882425
 20
52.29520963960722
 30
0.0
  0
VERTEX
  5
3A0
  8
DIMENSIONI
 10
2.619745575221658
 20
52.4276534080438
 30
0.0
  0
VERTEX
  5
3A1
  8
DIMENSIONI
 10
2.668141592920773
 20
52.5541513800202
 30
0.0
  0
VERTEX
  5
3A2
  8
DIMENSIONI
 10
2.779867256637587
 20
52.78543825317654
 30
0.0
  0
VERTEX
  5
3A3
  8
DIMENSIONI
 10
2.842090707965021
 20
52.8892592340025
 30
0.0
  0
VERTEX
  5
3A4
  8
DIMENSIONI
 10
2.908554572271806
 20
52.98519857766031
 30
0.0
  0
VERTEX
  5
3A5
  8
DIMENSIONI
 10
2.979258849557941
 20
53.07325628414999
 30
0.0
  0
VERTEX
  5
3A6
  8
DIMENSIONI
 10
3.054203539823428
 20
53.15343235347153
 30
0.0
  0
VERTEX
  5
3A7
  8
DIMENSIONI
 10
3.133388643068265
 20
53.22572678562493
 30
0.0
  0
VERTEX
  5
3A8
  8
DIMENSIONI
 10
3.216814159292454
 20
53.29013958061017
 30
0.0
  0
VERTEX
  5
3A9
  8
DIMENSIONI
 10
3.350663716814578
 20
53.37402601128863
 30
0.0
  0
VERTEX
  5
3AA
  8
DIMENSIONI
 10
3.486725663717233
 20
53.43394489034468
 30
0.0
  0
VERTEX
  5
3AB
  8
DIMENSIONI
 10
3.625000000000419
 20
53.46989621777831
 30
0.0
  0
VERTEX
  5
3AC
  8
DIMENSIONI
 10
3.765486725664136
 20
53.48187999358952
 30
0.0
  0
VERTEX
  5
3AD
  8
DIMENSIONI
 10
3.879056047198059
 20
53.47455145376652
 30
0.0
  0
VERTEX
  5
3AE
  8
DIMENSIONI
 10
3.989675516224608
 20
53.45256583429749
 30
0.0
  0
VERTEX
  5
3AF
  8
DIMENSIONI
 10
4.097345132743782
 20
53.41592313518244
 30
0.0
  0
VERTEX
  5
3B0
  8
DIMENSIONI
 10
4.202064896755582
 20
53.36462335642138
 30
0.0
  0
VERTEX
  5
3B1
  8
DIMENSIONI
 10
4.303834808260007
 20
53.2986664980143
 30
0.0
  0
VERTEX
  5
3B2
  8
DIMENSIONI
 10
4.402654867257056
 20
53.2180525599612
 30
0.0
  0
VERTEX
  5
3B3
  8
DIMENSIONI
 10
4.498525073746732
 20
53.12278154226209
 30
0.0
  0
VERTEX
  5
3B4
  8
DIMENSIONI
 10
4.591445427729033
 20
53.01285344491696
 30
0.0
  0
VERTEX
  5
3B5
  8
DIMENSIONI
 10
4.698608038348501
 20
52.86112040656887
 30
0.0
  0
VERTEX
  5
3B6
  8
DIMENSIONI
 10
4.791482300885375
 20
52.69648176350103
 30
0.0
  0
VERTEX
  5
3B7
  8
DIMENSIONI
 10
4.870068215339652
 20
52.51893751571342
 30
0.0
  0
VERTEX
  5
3B8
  8
DIMENSIONI
 10
4.934365781711334
 20
52.32848766320604
 30
0.0
  0
VERTEX
  5
3B9
  8
DIMENSIONI
 10
4.984375000000419
 20
52.1251322059789
 30
0.0
  0
VERTEX
  5
3BA
  8
DIMENSIONI
 10
5.020095870206909
 20
51.908871144032
 30
0.0
  0
VERTEX
  5
3BB
  8
DIMENSIONI
 10
5.041528392330803
 20
51.67970447736533
 30
0.0
  0
VERTEX
  5
3BC
  8
DIMENSIONI
 10
5.048672566372101
 20
51.4376322059789
 30
0.0
  0
VERTEX
  5
3BD
  8
DIMENSIONI
 10
5.036135693215759
 20
51.10263958061017
 30
0.0
  0
VERTEX
  5
3BE
  8
DIMENSIONI
 10
4.998525073746732
 20
50.79382689624439
 30
0.0
  0
VERTEX
  5
3BF
  8
DIMENSIONI
 10
4.970317109144963
 20
50.64923803193761
 30
0.0
  0
VERTEX
  5
3C0
  8
DIMENSIONI
 10
4.935840707965022
 20
50.51119415288156
 30
0.0
  0
VERTEX
  5
3C1
  8
DIMENSIONI
 10
4.89509587020691
 20
50.37969525907625
 30
0.0
  0
VERTEX
  5
3C2
  8
DIMENSIONI
 10
4.848082595870626
 20
50.25474135052168
 30
0.0
  0
VERTEX
  5
3C3
  8
DIMENSIONI
 10
4.740873893805729
 20
50.02806362190811
 30
0.0
  0
VERTEX
  5
3C4
  8
DIMENSIONI
 10
4.619837758112514
 20
49.83475609978422
 30
0.0
  0
VERTEX
  5
3C5
  8
DIMENSIONI
 10
4.554134402655287
 20
49.75061616615589
 30
0.0
  0
VERTEX
  5
3C6
  8
DIMENSIONI
 10
4.48497418879098
 20
49.67481878415
 30
0.0
  0
VERTEX
  5
3C7
  8
DIMENSIONI
 10
4.412357116519594
 20
49.60736395376652
 30
0.0
  0
VERTEX
  5
3C8
  8
DIMENSIONI
 10
4.336283185841127
 20
49.54825167500545
 30
0.0
  0
VERTEX
  5
3C9
  8
DIMENSIONI
 10
4.182061209439947
 20
49.45210491984321
 30
0.0
  0
VERTEX
  5
3CA
  8
DIMENSIONI
 10
4.030604719764431
 20
49.38342866615589
 30
0.0
  0
VERTEX
  5
3CB
  8
DIMENSIONI
 10
3.881913716814578
 20
49.3422229139435
 30
0.0
  0
VERTEX
  5
3CC
  8
DIMENSIONI
 10
3.735988200590389
 20
49.32848766320604
 30
0.0
  0
VERTEX
  5
3CD
  8
DIMENSIONI
 10
3.595916297935522
 20
49.33904260420899
 30
0.0
  0
VERTEX
  5
3CE
  8
DIMENSIONI
 10
3.46183628318626
 20
49.37070742721784
 30
0.0
  0
VERTEX
  5
3CF
  8
DIMENSIONI
 10
3.333748156342602
 20
49.42348213223259
 30
0.0
  0
VERTEX
  5
3D0
  8
DIMENSIONI
 10
3.211651917404549
 20
49.49736671925324
 30
0.0
  0
VERTEX
  5
3D1
  8
DIMENSIONI
 10
3.0955475663721
 20
49.59236118827979
 30
0.0
  0
VERTEX
  5
3D2
  8
DIMENSIONI
 10
2.985435103245257
 20
49.70846553931224
 30
0.0
  0
VERTEX
  5
3D3
  8
DIMENSIONI
 10
2.881314528024017
 20
49.84567977235059
 30
0.0
  0
VERTEX
  5
3D4
  8
DIMENSIONI
 10
2.783185840708383
 20
50.00400388739483
 30
0.0
  0
VERTEX
  5
3D5
  8
DIMENSIONI
 10
2.707826327434047
 20
50.14997549506445
 30
0.0
  0
VERTEX
  5
3D6
  8
DIMENSIONI
 10
2.642514749262956
 20
50.30322955111164
 30
0.0
  0
VERTEX
  5
3D7
  8
DIMENSIONI
 10
2.587251106195109
 20
50.46376605553642
 30
0.0
  0
VERTEX
  5
3D8
  8
DIMENSIONI
 10
2.542035398230508
 20
50.63158500833879
 30
0.0
  0
VERTEX
  5
3D9
  8
DIMENSIONI
 10
2.50686762536915
 20
50.80668640951873
 30
0.0
  0
VERTEX
  5
3DA
  8
DIMENSIONI
 10
2.481747787611038
 20
50.98907025907624
 30
0.0
  0
VERTEX
  5
3DB
  8
DIMENSIONI
 10
2.466675884956171
 20
51.17873655701135
 30
0.0
  0
SEQEND
  5
84A
  8
DIMENSIONI
  0
POLYLINE
  5
99
  8
DIMENSIONI
 66
     1
 10
0.0
 20
0.0
 30
0.0
 70
     1
  0
VERTEX
  5
3DC
  8
DIMENSIONI
 10
3.039823008849976
 20
51.30193899063967
 30
0.0
  0
VERTEX
  5
3DD
  8
DIMENSIONI
 10
3.052544247788029
 20
50.90794931512345
 30
0.0
  0
VERTEX
  5
3DE
  8
DIMENSIONI
 10
3.090707964602189
 20
50.55193899063967
 30
0.0
  0
VERTEX
  5
3DF
  8
DIMENSIONI
 10
3.119330752212809
 20
50.38817608503494
 30
0.0
  0
VERTEX
  5
3E0
  8
DIMENSIONI
 10
3.154314159292455
 20
50.23390801718834
 30
0.0
  0
VERTEX
  5
3E1
  8
DIMENSIONI
 10
3.195658185841127
 20
50.08913478709984
 30
0.0
  0
VERTEX
  5
3E2
  8
DIMENSIONI
 10
3.243362831858826
 20
49.95385639476947
 30
0.0
  0
VERTEX
  5
3E3
  8
DIMENSIONI
 10
3.287979351032867
 20
49.85084201423849
 30
0.0
  0
VERTEX
  5
3E4
  8
DIMENSIONI
 10
3.337758112094814
 20
49.76156288444498
 30
0.0
  0
VERTEX
  5
3E5
  8
DIMENSIONI
 10
3.392699115044667
 20
49.68601900538894
 30
0.0
  0
VERTEX
  5
3E6
  8
DIMENSIONI
 10
3.452802359882425
 20
49.62421037707035
 30
0.0
  0
VERTEX
  5
3E7
  8
DIMENSIONI
 10
3.518067846608088
 20
49.57613699948923
 30
0.0
  0
VERTEX
  5
3E8
  8
DIMENSIONI
 10
3.588495575221658
 20
49.54179887264557
 30
0.0
  0
VERTEX
  5
3E9
  8
DIMENSIONI
 10
3.664085545723133
 20
49.52119599653938
 30
0.0
  0
VERTEX
  5
3EA
  8
DIMENSIONI
 10
3.744837758112514
 20
49.51432837117064
 30
0.0
  0
VERTEX
  5
3EB
  8
DIMENSIONI
 10
3.825221238938472
 20
49.52327011158363
 30
0.0
  0
VERTEX
  5
3EC
  8
DIMENSIONI
 10
3.907079646018118
 20
49.55009533282256
 30
0.0
  0
VERTEX
  5
3ED
  8
DIMENSIONI
 10
3.990412979351451
 20
49.59480403488746
 30
0.0
  0
VERTEX
  5
3EE
  8
DIMENSIONI
 10
4.075221238938472
 20
49.65739621777831
 30
0.0
  0
VERTEX
  5
3EF
  8
DIMENSIONI
 10
4.155604719764431
 20
49.74100609978422
 30
0.0
  0
VERTEX
  5
3F0
  8
DIMENSIONI
 10
4.225663716814578
 20
49.84876789919424
 30
0.0
  0
VERTEX
  5
3F1
  8
DIMENSIONI
 10
4.285398230088916
 20
49.9806816160084
 30
0.0
  0
VERTEX
  5
3F2
  8
DIMENSIONI
 10
4.33480825958744
 20
50.13674725022669
 30
0.0
  0
VERTEX
  5
3F3
  8
DIMENSIONI
 10
4.394174041298355
 20
50.41643014108215
 30
0.0
  0
VERTEX
  5
3F4
  8
DIMENSIONI
 10
4.436578171091864
 20
50.74810418238008
 30
0.0
  0
VERTEX
  5
3F5
  8
DIMENSIONI
 10
4.462020648967971
 20
51.13176937412049
 30
0.0
  0
VERTEX
  5
3F6
  8
DIMENSIONI
 10
4.470501474926673
 20
51.56742571630339
 30
0.0
  0
VERTEX
  5
3F7
  8
DIMENSIONI
 10
4.461651917404549
 20
51.89541244196711
 30
0.0
  0
VERTEX
  5
3F8
  8
DIMENSIONI
 10
4.435103244838177
 20
52.19500683724734
 30
0.0
  0
VERTEX
  5
3F9
  8
DIMENSIONI
 10
4.390855457227557
 20
52.4662089021441
 30
0.0
  0
VERTEX
  5
3FA
  8
DIMENSIONI
 10
4.32890855457269
 20
52.70901863665737
 30
0.0
  0
VERTEX
  5
3FB
  8
DIMENSIONI
 10
4.271939528024017
 20
52.86628264845678
 30
0.0
  0
VERTEX
  5
3FC
  8
DIMENSIONI
 10
4.207227138643487
 20
52.99884164550693
 30
0.0
  0
VERTEX
  5
3FD
  8
DIMENSIONI
 10
4.134771386431098
 20
53.10669562780781
 30
0.0
  0
VERTEX
  5
3FE
  8
DIMENSIONI
 10
4.054572271386849
 20
53.18984459535943
 30
0.0
  0
VERTEX
  5
3FF
  8
DIMENSIONI
 10
3.990966076696584
 20
53.23243309093465
 30
0.0
  0
VERTEX
  5
400
  8
DIMENSIONI
 10
3.921091445428147
 20
53.26285344491696
 30
0.0
  0
VERTEX
  5
401
  8
DIMENSIONI
 10
3.84494837758154
 20
53.28110565730633
 30
0.0
  0
VERTEX
  5
402
  8
DIMENSIONI
 10
3.762536873156761
 20
53.2871897281028
 30
0.0
  0
VERTEX
  5
403
  8
DIMENSIONI
 10
3.665007374631688
 20
53.27594341541842
 30
0.0
  0
VERTEX
  5
404
  8
DIMENSIONI
 10
3.573008849557941
 20
53.24220447736533
 30
0.0
  0
VERTEX
  5
405
  8
DIMENSIONI
 10
3.486541297935522
 20
53.1859729139435
 30
0.0
  0
VERTEX
  5
406
  8
DIMENSIONI
 10
3.405604719764431
 20
53.10724872515294
 30
0.0
  0
VERTEX
  5
407
  8
DIMENSIONI
 10
3.354627581121363
 20
53.04166059830929
 30
0.0
  0
VERTEX
  5
408
  8
DIMENSIONI
 10
3.307890855457646
 20
52.96731509683436
 30
0.0
  0
VERTEX
  5
409
  8
DIMENSIONI
 10
3.26539454277328
 20
52.88421222072817
 30
0.0
  0
VERTEX
  5
40A
  8
DIMENSIONI
 10
3.227138643068265
 20
52.7923519699907
 30
0.0
  0
VERTEX
  5
40B
  8
DIMENSIONI
 10
3.163348082596289
 20
52.58235934462198
 30
0.0
  0
VERTEX
  5
40C
  8
DIMENSIONI
 10
3.116519174041717
 20
52.33733722072817
 30
0.0
  0
VERTEX
  5
40D
  8
DIMENSIONI
 10
3.08296460177033
 20
52.07572217648037
 30
0.0
  0
VERTEX
  5
40E
  8
DIMENSIONI
 10
3.058997050147911
 20
51.8159507900497
 30
0.0
  0
VERTEX
  5
40F
  8
DIMENSIONI
 10
3.04461651917446
 20
51.55802306143613
 30
0.0
  0
SEQEND
  5
84B
  8
DIMENSIONI
  0
POLYLINE
  5
9A
  8
DIMENSIONI
 66
     1
 10
0.0
 20
0.0
 30
0.0
  0
VERTEX
  5
410
  8
DIMENSIONI
 10
-30.26393202249979
 20
51.48187999360172
 30
0.0
  0
VERTEX
  5
411
  8
DIMENSIONI
 10
-5.548672566371263
 20
51.48187999359176
 30
0.0
  0
SEQEND
  5
84C
  8
DIMENSIONI
  0
POLYLINE
  5
9B
  8
DIMENSIONI
 66
     1
 10
0.0
 20
0.0
 30
0.0
  0
VERTEX
  5
412
  8
DIMENSIONI
 10
5.548672566372101
 20
51.48187999358728
 30
0.0
  0
VERTEX
  5
413
  8
DIMENSIONI
 10
30.26393202250063
 20
51.48187999357733
 30
0.0
  0
SEQEND
  5
84D
  8
DIMENSIONI
  0
POLYLINE
  5
9C
  8
DIMENSIONI
 66
     1
 10
0.0
 20
0.0
 30
0.0
  0
VERTEX
  5
414
  8
DIMENSIONI
 10
-33.49999999999958
 20
51.48187999360302
 30
0.0
  0
VERTEX
  5
415
  8
DIMENSIONI
 10
-33.49999999999878
 20
53.48187999360302
 30
0.0
  0
SEQEND
  5
84E
  8
DIMENSIONI
  0
POLYLINE
  5
9D
  8
DIMENSIONI
 66
     1
 10
0.0
 20
0.0
 30
0.0
  0
VERTEX
  5
416
  8
DIMENSIONI
 10
33.50000000000042
 20
51.48187999357603
 30
0.0
  0
VERTEX
  5
417
  8
DIMENSIONI
 10
33.50000000000122
 20
53.48187999357603
 30
0.0
  0
SEQEND
  5
84F
  8
DIMENSIONI
  0
POLYLINE
  5
9E
  8
DIMENSIONI
 66
     1
 10
0.0
 20
0.0
 30
0.0
  0
VERTEX
  5
418
  8
DIMENSIONI
 10
-33.49999999999958
 20
51.48187999360302
 30
0.0
  0
VERTEX
  5
419
  8
DIMENSIONI
 10
-30.26393202250019
 20
50.48187999360172
 30
0.0
  0
SEQEND
  5
850
  8
DIMENSIONI
  0
POLYLINE
  5
9F
  8
DIMENSIONI
 66
     1
 10
0.0
 20
0.0
 30
0.0
  0
VERTEX
  5
41A
  8
DIMENSIONI
 10
-30.26393202250019
 20
50.48187999360172
 30
0.0
  0
VERTEX
  5
41B
  8
DIMENSIONI
 10
-30.26393202249939
 20
52.48187999360172
 30
0.0
  0
SEQEND
  5
851
  8
DIMENSIONI
  0
POLYLINE
  5
A0
  8
DIMENSIONI
 66
     1
 10
0.0
 20
0.0
 30
0.0
  0
VERTEX
  5
41C
  8
DIMENSIONI
 10
-30.26393202249939
 20
52.48187999360172
 30
0.0
  0
VERTEX
  5
41D
  8
DIMENSIONI
 10
-33.49999999999958
 20
51.48187999360302
 30
0.0
  0
SEQEND
  5
852
  8
DIMENSIONI
  0
POLYLINE
  5
A1
  8
DIMENSIONI
 66
     1
 10
0.0
 20
0.0
 30
0.0
  0
VERTEX
  5
41E
  8
DIMENSIONI
 10
33.50000000000042
 20
51.48187999357603
 30
0.0
  0
VERTEX
  5
41F
  8
DIMENSIONI
 10
30.26393202250103
 20
52.48187999357733
 30
0.0
  0
SEQEND
  5
853
  8
DIMENSIONI
  0
POLYLINE
  5
A2
  8
DIMENSIONI
 66
     1
 10
0.0
 20
0.0
 30
0.0
  0
VERTEX
  5
420
  8
DIMENSIONI
 10
30.26393202250103
 20
52.48187999357733
 30
0.0
  0
VERTEX
  5
421
  8
DIMENSIONI
 10
30.26393202250023
 20
50.48187999357733
 30
0.0
  0
SEQEND
  5
854
  8
DIMENSIONI
  0
POLYLINE
  5
A3
  8
DIMENSIONI
 66
     1
 10
0.0
 20
0.0
 30
0.0
  0
VERTEX
  5
422
  8
DIMENSIONI
 10
30.26393202250023
 20
50.48187999357733
 30
0.0
  0
VERTEX
  5
423
  8
DIMENSIONI
 10
33.50000000000042
 20
51.48187999357603
 30
0.0
  0
SEQEND
  5
855
  8
DIMENSIONI
  0
POLYLINE
  5
A4
  8
DIMENSIONI
 66
     1
 10
0.0
 20
0.0
 30
0.0
 70
     1
  0
VERTEX
  5
424
  8
DIMENSIONI
 10
-4.994100294984959
 20
27.47396311647971
 30
0.0
  0
VERTEX
  5
425
  8
DIMENSIONI
 10
-4.902931415928912
 20
27.66450515187794
 30
0.0
  0
VERTEX
  5
426
  8
DIMENSIONI
 10
-4.800516224188499
 20
27.83200146456231
 30
0.0
  0
VERTEX
  5
427
  8
DIMENSIONI
 10
-4.686854719763721
 20
27.97645205453281
 30
0.0
  0
VERTEX
  5
428
  8
DIMENSIONI
 10
-4.561946902654576
 20
28.09785692178945
 30
0.0
  0
VERTEX
  5
429
  8
DIMENSIONI
 10
-4.494676438052806
 20
28.14936411205493
 30
0.0
  0
VERTEX
  5
42A
  8
DIMENSIONI
 10
-4.423396017698824
 20
28.19400367695169
 30
0.0
  0
VERTEX
  5
42B
  8
DIMENSIONI
 10
-4.348105641592629
 20
28.23177561647971
 30
0.0
  0
VERTEX
  5
42C
  8
DIMENSIONI
 10
-4.268805309734223
 20
28.26267993063901
 30
0.0
  0
VERTEX
  5
42D
  8
DIMENSIONI
 10
-4.185495022123603
 20
28.28671661942957
 30
0.0
  0
VERTEX
  5
42E
  8
DIMENSIONI
 10
-4.098174778760772
 20
28.30388568285139
 30
0.0
  0
VERTEX
  5
42F
  8
DIMENSIONI
 10
-3.91150442477847
 20
28.31762093358886
 30
0.0
  0
VERTEX
  5
430
  8
DIMENSIONI
 10
-3.794800884955461
 20
28.31273524037352
 30
0.0
  0
VERTEX
  5
431
  8
DIMENSIONI
 10
-3.685103244837467
 20
28.2980781607275
 30
0.0
  0
VERTEX
  5
432
  8
DIMENSIONI
 10
-3.582411504424488
 20
28.2736496946508
 30
0.0
  0
VERTEX
  5
433
  8
DIMENSIONI
 10
-3.486725663716522
 20
28.23944984214343
 30
0.0
  0
VERTEX
  5
434
  8
DIMENSIONI
 10
-3.398045722713573
 20
28.19547860320538
 30
0.0
  0
VERTEX
  5
435
  8
DIMENSIONI
 10
-3.316371681415638
 20
28.14173597783665
 30
0.0
  0
VERTEX
  5
436
  8
DIMENSIONI
 10
-3.241703539822717
 20
28.07822196603724
 30
0.0
  0
VERTEX
  5
437
  8
DIMENSIONI
 10
-3.174041297934812
 20
28.00493656780715
 30
0.0
  0
VERTEX
  5
438
  8
DIMENSIONI
 10
-3.088864306784369
 20
27.88638937016702
 30
0.0
  0
VERTEX
  5
439
  8
DIMENSIONI
 10
-3.028023598819767
 20
27.76378612532927
 30
0.0
  0
VERTEX
  5
43A
  8
DIMENSIONI
 10
-2.991519174041006
 20
27.63712683329387
 30
0.0
  0
VERTEX
  5
43B
  8
DIMENSIONI
 10
-2.979351032448086
 20
27.50641149406083
 30
0.0
  0
VERTEX
  5
43C
  8
DIMENSIONI
 10
-2.987924041297644
 20
27.39680603683369
 30
0.0
  0
VERTEX
  5
43D
  8
DIMENSIONI
 10
-3.013643067846317
 20
27.286278750698
 30
0.0
  0
VERTEX
  5
43E
  8
DIMENSIONI
 10
-3.056508112094104
 20
27.17482963565375
 30
0.0
  0
VERTEX
  5
43F
  8
DIMENSIONI
 10
-3.116519174041007
 20
27.06245869170095
 30
0.0
  0
VERTEX
  5
440
  8
DIMENSIONI
 10
-3.193676253687024
 20
26.9491659188396
 30
0.0
  0
VERTEX
  5
441
  8
DIMENSIONI
 10
-3.287979351032157
 20
26.83495131706968
 30
0.0
  0
VERTEX
  5
442
  8
DIMENSIONI
 10
-3.399428466076404
 20
26.71981488639122
 30
0.0
  0
VERTEX
  5
443
  8
DIMENSIONI
 10
-3.528023598819767
 20
26.60375662680419
 30
0.0
  0
VERTEX
  5
444
  8
DIMENSIONI
 10
-3.354904129793219
 20
26.52374187754166
 30
0.0
  0
VERTEX
  5
445
  8
DIMENSIONI
 10
-3.204277286135402
 20
26.4282404026154
 30
0.0
  0
VERTEX
  5
446
  8
DIMENSIONI
 10
-3.076143067846316
 20
26.31725220202544
 30
0.0
  0
VERTEX
  5
447
  8
DIMENSIONI
 10
-2.970501474925962
 20
26.19077727577175
 30
0.0
  0
VERTEX
  5
448
  8
DIMENSIONI
 10
-2.887905604719473
 20
26.05065928167145
 30
0.0
  0
VERTEX
  5
449
  8
DIMENSIONI
 10
-2.82890855457198
 20
25.89874187754166
 30
0.0
  0
VERTEX
  5
44A
  8
DIMENSIONI
 10
-2.793510324483484
 20
25.73502506338237
 30
0.0
  0
VERTEX
  5
44B
  8
DIMENSIONI
 10
-2.781710914453986
 20
25.55950883919358
 30
0.0
  0
VERTEX
  5
44C
  8
DIMENSIONI
 10
-2.786873156341892
 20
25.43188162680419
 30
0.0
  0
VERTEX
  5
44D
  8
DIMENSIONI
 10
-2.802359882005609
 20
25.30858701028502
 30
0.0
  0
VERTEX
  5
44E
  8
DIMENSIONI
 10
-2.828171091445137
 20
25.18962498963606
 30
0.0
  0
VERTEX
  5
44F
  8
DIMENSIONI
 10
-2.864306784660476
 20
25.0749955648573
 30
0.0
  0
VERTEX
  5
450
  8
DIMENSIONI
 10
-2.910766961651627
 20
24.96469873594874
 30
0.0
  0
VERTEX
  5
451
  8
DIMENSIONI
 10
-2.967551622418588
 20
24.85873450291039
 30
0.0
  0
VERTEX
  5
452
  8
DIMENSIONI
 10
-3.034660766961361
 20
24.75710286574225
 30
0.0
  0
VERTEX
  5
453
  8
DIMENSIONI
 10
-3.112094395279945
 20
24.65980382444431
 30
0.0
  0
VERTEX
  5
454
  8
DIMENSIONI
 10
-3.225801991150151
 20
24.54365338196644
 30
0.0
  0
VERTEX
  5
455
  8
DIMENSIONI
 10
-3.351585545722422
 20
24.44298966515228
 30
0.0
  0
VERTEX
  5
456
  8
DIMENSIONI
 10
-3.489445058996758
 20
24.35781267400184
 30
0.0
  0
VERTEX
  5
457
  8
DIMENSIONI
 10
-3.63938053097316
 20
24.28812240851511
 30
0.0
  0
VERTEX
  5
458
  8
DIMENSIONI
 10
-3.801391961651626
 20
24.2339188686921
 30
0.0
  0
VERTEX
  5
459
  8
DIMENSIONI
 10
-3.975479351032157
 20
24.19520205453281
 30
0.0
  0
VERTEX
  5
45A
  8
DIMENSIONI
 10
-4.161642699114752
 20
24.17197196603724
 30
0.0
  0
VERTEX
  5
45B
  8
DIMENSIONI
 10
-4.359882005899413
 20
24.16422860320538
 30
0.0
  0
VERTEX
  5
45C
  8
DIMENSIONI
 10
-4.54581489675487
 20
24.17049703978355
 30
0.0
  0
VERTEX
  5
45D
  8
DIMENSIONI
 10
-4.699483775810917
 20
24.18930234951806
 30
0.0
  0
VERTEX
  5
45E
  8
DIMENSIONI
 10
-4.820888643067555
 20
24.22064453240891
 30
0.0
  0
VERTEX
  5
45F
  8
DIMENSIONI
 10
-4.910029498524782
 20
24.26452358845611
 30
0.0
  0
VERTEX
  5
460
  8
DIMENSIONI
 10
-4.973912241887614
 20
24.31559290999003
 30
0.0
  0
VERTEX
  5
461
  8
DIMENSIONI
 10
-5.019542772861065
 20
24.36850588934107
 30
0.0
  0
VERTEX
  5
462
  8
DIMENSIONI
 10
-5.046921091445136
 20
24.42326252650921
 30
0.0
  0
VERTEX
  5
463
  8
DIMENSIONI
 10
-5.056047197639827
 20
24.47986282149446
 30
0.0
  0
VERTEX
  5
464
  8
DIMENSIONI
 10
-5.05171460176962
 20
24.52134512237942
 30
0.0
  0
VERTEX
  5
465
  8
DIMENSIONI
 10
-5.038716814159001
 20
24.56024630232042
 30
0.0
  0
VERTEX
  5
466
  8
DIMENSIONI
 10
-5.017053834807968
 20
24.59656636131747
 30
0.0
  0
VERTEX
  5
467
  8
DIMENSIONI
 10
-4.986725663716522
 20
24.63030529937057
 30
0.0
  0
VERTEX
  5
468
  8
DIMENSIONI
 10
-4.950313421828617
 20
24.65869762975405
 30
0.0
  0
VERTEX
  5
469
  8
DIMENSIONI
 10
-4.910398230088203
 20
24.67897786574225
 30
0.0
  0
VERTEX
  5
46A
  8
DIMENSIONI
 10
-4.866980088495282
 20
24.69114600733517
 30
0.0
  0
VERTEX
  5
46B
  8
DIMENSIONI
 10
-4.820058997049856
 20
24.69520205453281
 30
0.0
  0
VERTEX
  5
46C
  8
DIMENSIONI
 10
-4.745575221238647
 20
24.68930234951806
 30
0.0
  0
VERTEX
  5
46D
  8
DIMENSIONI
 10
-4.66961651917375
 20
24.67160323447381
 30
0.0
  0
VERTEX
  5
46E
  8
DIMENSIONI
 10
-4.587758112094104
 20
24.63731119907558
 30
0.0
  0
VERTEX
  5
46F
  8
DIMENSIONI
 10
-4.442477876105903
 20
24.56393361795464
 30
0.0
  0
VERTEX
  5
470
  8
DIMENSIONI
 10
-4.29277286135664
 20
24.48981857370685
 30
0.0
  0
VERTEX
  5
471
  8
DIMENSIONI
 10
-4.197640117993808
 20
24.45331414892809
 30
0.0
  0
VERTEX
  5
472
  8
DIMENSIONI
 10
-4.08480825958673
 20
24.42897786574225
 30
0.0
  0
VERTEX
  5
473
  8
DIMENSIONI
 10
-3.964601769911213
 20
24.42086577134697
 30
0.0
  0
VERTEX
  5
474
  8
DIMENSIONI
 10
-3.819044985250446
 20
24.43543066810213
 30
0.0
  0
VERTEX
  5
475
  8
DIMENSIONI
 10
-3.749930862831567
 20
24.45363678904608
 30
0.0
  0
VERTEX
  5
476
  8
DIMENSIONI
 10
-3.683259587020357
 20
24.47912535836761
 30
0.0
  0
VERTEX
  5
477
  8
DIMENSIONI
 10
-3.619031157816818
 20
24.51189637606673
 30
0.0
  0
VERTEX
  5
478
  8
DIMENSIONI
 10
-3.557245575220947
 20
24.55194984214343
 30
0.0
  0
VERTEX
  5
479
  8
DIMENSIONI
 10
-3.441002949852216
 20
24.65390411942957
 30
0.0
  0
VERTEX
  5
47A
  8
DIMENSIONI
 10
-3.343565634217998
 20
24.77576990114048
 30
0.0
  0
VERTEX
  5
47B
  8
DIMENSIONI
 10
-3.273967551622128
 20
24.90832889819063
 30
0.0
  0
VERTEX
  5
47C
  8
DIMENSIONI
 10
-3.232208702064606
 20
25.05158111058001
 30
0.0
  0
VERTEX
  5
47D
  8
DIMENSIONI
 10
-3.218289085545432
 20
25.20552653830862
 30
0.0
  0
VERTEX
  5
47E
  8
DIMENSIONI
 10
-3.224741887905314
 20
25.32130824922308
 30
0.0
  0
VERTEX
  5
47F
  8
DIMENSIONI
 10
-3.24410029498496
 20
25.43561503388384
 30
0.0
  0
VERTEX
  5
480
  8
DIMENSIONI
 10
-3.27636430678437
 20
25.54844689229092
 30
0.0
  0
VERTEX
  5
481
  8
DIMENSIONI
 10
-3.321533923303543
 20
25.65980382444431
 30
0.0
  0
VERTEX
  5
482
  8
DIMENSIONI
 10
-3.401917404129502
 20
25.80508406043251
 30
0.0
  0
VERTEX
  5
483
  8
DIMENSIONI
 10
-3.444874631268145
 20
25.86279055010803
 30
0.0
  0
VERTEX
  5
484
  8
DIMENSIONI
 10
-3.489675516223897
 20
25.91054128757116
 30
0.0
  0
VERTEX
  5
485
  8
DIMENSIONI
 10
-3.558997050147201
 20
25.96815559435582
 30
0.0
  0
VERTEX
  5
486
  8
DIMENSIONI
 10
-3.640117994100003
 20
26.02300441441481
 30
0.0
  0
VERTEX
  5
487
  8
DIMENSIONI
 10
-3.733038348082304
 20
26.07508774774815
 30
0.0
  0
VERTEX
  5
488
  8
DIMENSIONI
 10
-3.837758112094104
 20
26.12440559435582
 30
0.0
  0
VERTEX
  5
489
  8
DIMENSIONI
 10
-3.948930678465785
 20
26.16634880969505
 30
0.0
  0
VERTEX
  5
48A
  8
DIMENSIONI
 10
-4.061209439527732
 20
26.19630824922308
 30
0.0
  0
VERTEX
  5
48B
  8
DIMENSIONI
 10
-4.174594395279945
 20
26.21428391293989
 30
0.0
  0
VERTEX
  5
48C
  8
DIMENSIONI
 10
-4.289085545722422
 20
26.22027580084549
 30
0.0
  0
VERTEX
  5
48D
  8
DIMENSIONI
 10
-4.383480825958411
 20
26.22027580084549
 30
0.0
  0
VERTEX
  5
48E
  8
DIMENSIONI
 10
-4.383480825958411
 20
26.30877137606673
 30
0.0
  0
VERTEX
  5
48F
  8
DIMENSIONI
 10
-4.266869469026257
 20
26.33034217252691
 30
0.0
  0
VERTEX
  5
490
  8
DIMENSIONI
 10
-4.150073746312393
 20
26.36555603683369
 30
0.0
  0
VERTEX
  5
491
  8
DIMENSIONI
 10
-4.033093657816817
 20
26.41441296898709
 30
0.0
  0
VERTEX
  5
492
  8
DIMENSIONI
 10
-3.915929203539531
 20
26.47691296898709
 30
0.0
  0
VERTEX
  5
493
  8
DIMENSIONI
 10
-3.806692477875815
 20
26.5497374527629
 30
0.0
  0
VERTEX
  5
494
  8
DIMENSIONI
 10
-3.713495575220947
 20
26.62956783624372
 30
0.0
  0
VERTEX
  5
495
  8
DIMENSIONI
 10
-3.63633849557493
 20
26.71640411942957
 30
0.0
  0
VERTEX
  5
496
  8
DIMENSIONI
 10
-3.575221238937762
 20
26.81024630232042
 30
0.0
  0
VERTEX
  5
497
  8
DIMENSIONI
 10
-3.528761061946611
 20
26.90998819022602
 30
0.0
  0
VERTEX
  5
498
  8
DIMENSIONI
 10
-3.495575221238647
 20
27.01452358845611
 30
0.0
  0
VERTEX
  5
499
  8
DIMENSIONI
 10
-3.475663716813868
 20
27.12385249701068
 30
0.0
  0
VERTEX
  5
49A
  8
DIMENSIONI
 10
-3.469026548672275
 20
27.23797491588974
 30
0.0
  0
VERTEX
  5
49B
  8
DIMENSIONI
 10
-3.480918141592629
 20
27.38260987164195
 30
0.0
  0
VERTEX
  5
49C
  8
DIMENSIONI
 10
-3.516592920353691
 20
27.512679930639
 30
0.0
  0
VERTEX
  5
49D
  8
DIMENSIONI
 10
-3.576050884955461
 20
27.62818509288089
 30
0.0
  0
VERTEX
  5
49E
  8
DIMENSIONI
 10
-3.659292035397939
 20
27.72912535836762
 30
0.0
  0
VERTEX
  5
49F
  8
DIMENSIONI
 10
-3.760232300884664
 20
27.81107594833812
 30
0.0
  0
VERTEX
  5
4A0
  8
DIMENSIONI
 10
-3.872787610619178
 20
27.86961208403133
 30
0.0
  0
VERTEX
  5
4A1
  8
DIMENSIONI
 10
-3.996957964601479
 20
27.90473376544726
 30
0.0
  0
VERTEX
  5
4A2
  8
DIMENSIONI
 10
-4.132743362831567
 20
27.9164409925859
 30
0.0
  0
VERTEX
  5
4A3
  8
DIMENSIONI
 10
-4.24469948377552
 20
27.9087898126449
 30
0.0
  0
VERTEX
  5
4A4
  8
DIMENSIONI
 10
-4.351954277285843
 20
27.88583627282189
 30
0.0
  0
VERTEX
  5
4A5
  8
DIMENSIONI
 10
-4.454507743362541
 20
27.84758037311688
 30
0.0
  0
VERTEX
  5
4A6
  8
DIMENSIONI
 10
-4.552359882005607
 20
27.79402211352986
 30
0.0
  0
VERTEX
  5
4A7
  8
DIMENSIONI
 10
-4.645510693215048
 20
27.72516149406083
 30
0.0
  0
VERTEX
  5
4A8
  8
DIMENSIONI
 10
-4.733960176990859
 20
27.6409985147098
 30
0.0
  0
VERTEX
  5
4A9
  8
DIMENSIONI
 10
-4.817708333333043
 20
27.54153317547676
 30
0.0
  0
VERTEX
  5
4AA
  8
DIMENSIONI
 10
-4.896755162241597
 20
27.42676547636172
 30
0.0
  0
SEQEND
  5
856
  8
DIMENSIONI
  0
POLYLINE
  5
A5
  8
DIMENSIONI
 66
     1
 10
0.0
 20
0.0
 30
0.0
 70
     1
  0
VERTEX
  5
4AB
  8
DIMENSIONI
 10
0.4896755162244799
 20
25.00493656780715
 30
0.0
  0
VERTEX
  5
4AC
  8
DIMENSIONI
 10
0.2094395280238899
 20
24.23502506338237
 30
0.0
  0
VERTEX
  5
4AD
  8
DIMENSIONI
 10
-2.150442477875815
 20
24.23502506338237
 30
0.0
  0
VERTEX
  5
4AE
  8
DIMENSIONI
 10
-2.150442477875815
 20
24.34416960615523
 30
0.0
  0
VERTEX
  5
4AF
  8
DIMENSIONI
 10
-1.668325958701774
 20
24.79734069760065
 30
0.0
  0
VERTEX
  5
4B0
  8
DIMENSIONI
 10
-1.263274336282895
 20
25.2070014645623
 30
0.0
  0
VERTEX
  5
4B1
  8
DIMENSIONI
 10
-0.9352876106191779
 20
25.57315190704018
 30
0.0
  0
VERTEX
  5
4B2
  8
DIMENSIONI
 10
-0.8001935840705054
 20
25.7399107565977
 30
0.0
  0
VERTEX
  5
4B3
  8
DIMENSIONI
 10
-0.6843657817106235
 20
25.89579202503428
 30
0.0
  0
VERTEX
  5
4B4
  8
DIMENSIONI
 10
-0.5848082595867297
 20
26.04462130232042
 30
0.0
  0
VERTEX
  5
4B5
  8
DIMENSIONI
 10
-0.4985250737460217
 20
26.19022417842661
 30
0.0
  0
VERTEX
  5
4B6
  8
DIMENSIONI
 10
-0.4255162241884995
 20
26.33260065335287
 30
0.0
  0
VERTEX
  5
4B7
  8
DIMENSIONI
 10
-0.3657817109141633
 20
26.47175072709918
 30
0.0
  0
VERTEX
  5
4B8
  8
DIMENSIONI
 10
-0.3193215339230129
 20
26.60767439966556
 30
0.0
  0
VERTEX
  5
4B9
  8
DIMENSIONI
 10
-0.2861356932150483
 20
26.74037167105198
 30
0.0
  0
VERTEX
  5
4BA
  8
DIMENSIONI
 10
-0.2662241887902695
 20
26.86984254125847
 30
0.0
  0
VERTEX
  5
4BB
  8
DIMENSIONI
 10
-0.2595870206486766
 20
26.99608701028502
 30
0.0
  0
VERTEX
  5
4BC
  8
DIMENSIONI
 10
-0.2632282448374671
 20
27.08909954715818
 30
0.0
  0
VERTEX
  5
4BD
  8
DIMENSIONI
 10
-0.2741519174038388
 20
27.17787167105198
 30
0.0
  0
VERTEX
  5
4BE
  8
DIMENSIONI
 10
-0.2923580383477917
 20
27.26240338196644
 30
0.0
  0
VERTEX
  5
4BF
  8
DIMENSIONI
 10
-0.3178466076693256
 20
27.34269467990154
 30
0.0
  0
VERTEX
  5
4C0
  8
DIMENSIONI
 10
-0.3506176253684407
 20
27.41874556485729
 30
0.0
  0
VERTEX
  5
4C1
  8
DIMENSIONI
 10
-0.3906710914451368
 20
27.49055603683369
 30
0.0
  0
VERTEX
  5
4C2
  8
DIMENSIONI
 10
-0.4380070058994141
 20
27.55812609583074
 30
0.0
  0
VERTEX
  5
4C3
  8
DIMENSIONI
 10
-0.4926253687312725
 20
27.62145574184844
 30
0.0
  0
VERTEX
  5
4C4
  8
DIMENSIONI
 10
-0.552313790560181
 20
27.67883959140596
 30
0.0
  0
VERTEX
  5
4C5
  8
DIMENSIONI
 10
-0.6148598820056088
 20
27.72857226102249
 30
0.0
  0
VERTEX
  5
4C6
  8
DIMENSIONI
 10
-0.6802636430675557
 20
27.770653750698
 30
0.0
  0
VERTEX
  5
4C7
  8
DIMENSIONI
 10
-0.7485250737460216
 20
27.80508406043251
 30
0.0
  0
VERTEX
  5
4C8
  8
DIMENSIONI
 10
-0.819644174041007
 20
27.83186319022602
 30
0.0
  0
VERTEX
  5
4C9
  8
DIMENSIONI
 10
-0.8936209439525113
 20
27.85099114007853
 30
0.0
  0
VERTEX
  5
4CA
  8
DIMENSIONI
 10
-0.970455383480535
 20
27.86246790999004
 30
0.0
  0
VERTEX
  5
4CB
  8
DIMENSIONI
 10
-1.050147492625078
 20
27.86629349996054
 30
0.0
  0
VERTEX
  5
4CC
  8
DIMENSIONI
 10
-1.193860619468736
 20
27.85550810173045
 30
0.0
  0
VERTEX
  5
4CD
  8
DIMENSIONI
 10
-1.330014749262246
 20
27.82315190704018
 30
0.0
  0
VERTEX
  5
4CE
  8
DIMENSIONI
 10
-1.458609882005609
 20
27.76922491588974
 30
0.0
  0
VERTEX
  5
4CF
  8
DIMENSIONI
 10
-1.579646017698824
 20
27.69372712827912
 30
0.0
  0
VERTEX
  5
4D0
  8
DIMENSIONI
 10
-1.689251474925963
 20
27.59739600733517
 30
0.0
  0
VERTEX
  5
4D1
  8
DIMENSIONI
 10
-1.783554572271095
 20
27.48096901618473
 30
0.0
  0
VERTEX
  5
4D2
  8
DIMENSIONI
 10
-1.862555309734222
 20
27.3444461548278
 30
0.0
  0
VERTEX
  5
4D3
  8
DIMENSIONI
 10
-1.926253687315343
 20
27.18782742326437
 30
0.0
  0
VERTEX
  5
4D4
  8
DIMENSIONI
 10
-2.035398230088204
 20
27.18782742326437
 30
0.0
  0
VERTEX
  5
4D5
  8
DIMENSIONI
 10
-2.013343473451036
 20
27.32029423742367
 30
0.0
  0
VERTEX
  5
4D6
  8
DIMENSIONI
 10
-1.984052359881715
 20
27.44483332296939
 30
0.0
  0
VERTEX
  5
4D7
  8
DIMENSIONI
 10
-1.94752488938024
 20
27.56144467990154
 30
0.0
  0
VERTEX
  5
4D8
  8
DIMENSIONI
 10
-1.903761061946612
 20
27.67012830822012
 30
0.0
  0
VERTEX
  5
4D9
  8
DIMENSIONI
 10
-1.85276087758083
 20
27.77088420792514
 30
0.0
  0
VERTEX
  5
4DA
  8
DIMENSIONI
 10
-1.794524336282895
 20
27.86371237901658
 30
0.0
  0
VERTEX
  5
4DB
  8
DIMENSIONI
 10
-1.729051438052806
 20
27.94861282149446
 30
0.0
  0
VERTEX
  5
4DC
  8
DIMENSIONI
 10
-1.656342182890564
 20
28.02558553535877
 30
0.0
  0
VERTEX
  5
4DD
  8
DIMENSIONI
 10
-1.577641039822718
 20
28.09403133181895
 30
0.0
  0
VERTEX
  5
4DE
  8
DIMENSIONI
 10
-1.494192477875815
 20
28.15335102208443
 30
0.0
  0
VERTEX
  5
4DF
  8
DIMENSIONI
 10
-1.405996497049856
 20
28.20354460615523
 30
0.0
  0
VERTEX
  5
4E0
  8
DIMENSIONI
 10
-1.313053097344842
 20
28.24461208403133
 30
0.0
  0
VERTEX
  5
4E1
  8
DIMENSIONI
 10
-1.215362278760771
 20
28.27655345571275
 30
0.0
  0
VERTEX
  5
4E2
  8
DIMENSIONI
 10
-1.112924041297644
 20
28.29936872119947
 30
0.0
  0
VERTEX
  5
4E3
  8
DIMENSIONI
 10
-1.005738384955461
 20
28.31305788049151
 30
0.0
  0
VERTEX
  5
4E4
  8
DIMENSIONI
 10
-0.8938053097342222
 20
28.31762093358886
 30
0.0
  0
VERTEX
  5
4E5
  8
DIMENSIONI
 10
-0.77463587758083
 20
28.31273524037352
 30
0.0
  0
VERTEX
  5
4E6
  8
DIMENSIONI
 10
-0.6604904129790601
 20
28.2980781607275
 30
0.0
  0
VERTEX
  5
4E7
  8
DIMENSIONI
 10
-0.5513689159289126
 20
28.2736496946508
 30
0.0
  0
VERTEX
  5
4E8
  8
DIMENSIONI
 10
-0.4472713864303874
 20
28.23944984214343
 30
0.0
  0
VERTEX
  5
4E9
  8
DIMENSIONI
 10
-0.3481978244834848
 20
28.19547860320538
 30
0.0
  0
VERTEX
  5
4EA
  8
DIMENSIONI
 10
-0.2541482300882046
 20
28.14173597783665
 30
0.0
  0
VERTEX
  5
4EB
  8
DIMENSIONI
 10
-0.1651226032445468
 20
28.07822196603724
 30
0.0
  0
VERTEX
  5
4EC
  8
DIMENSIONI
 10
-0.0811209439525113
 20
28.00493656780715
 30
0.0
  0
VERTEX
  5
4ED
  8
DIMENSIONI
 10
-0.0047243731560512
 20
27.92501400143546
 30
0.0
  0
VERTEX
  5
4EE
  8
DIMENSIONI
 10
0.0614859882008809
 20
27.84158848521127
 30
0.0
  0
VERTEX
  5
4EF
  8
DIMENSIONI
 10
0.117510140118285
 20
27.75466001913458
 30
0.0
  0
VERTEX
  5
4F0
  8
DIMENSIONI
 10
0.1633480825961612
 20
27.66422860320537
 30
0.0
  0
VERTEX
  5
4F1
  8
DIMENSIONI
 10
0.1989998156345093
 20
27.57029423742366
 30
0.0
  0
VERTEX
  5
4F2
  8
DIMENSIONI
 10
0.2244653392333294
 20
27.47285692178944
 30
0.0
  0
VERTEX
  5
4F3
  8
DIMENSIONI
 10
0.2397446533926215
 20
27.37191665630272
 30
0.0
  0
VERTEX
  5
4F4
  8
DIMENSIONI
 10
0.2448377581123855
 20
27.26747344096349
 30
0.0
  0
VERTEX
  5
4F5
  8
DIMENSIONI
 10
0.2359882005902616
 20
27.11555603683369
 30
0.0
  0
VERTEX
  5
4F6
  8
DIMENSIONI
 10
0.2094395280238898
 20
26.9636386327039
 30
0.0
  0
VERTEX
  5
4F7
  8
DIMENSIONI
 10
0.1651917404132703
 20
26.81172122857411
 30
0.0
  0
VERTEX
  5
4F8
  8
DIMENSIONI
 10
0.103244837758403
 20
26.65980382444431
 30
0.0
  0
VERTEX
  5
4F9
  8
DIMENSIONI
 10
-0.0228613569318625
 20
26.41736282149446
 30
0.0
  0
VERTEX
  5
4FA
  8
DIMENSIONI
 10
-0.1828908554569362
 20
26.16791591883959
 30
0.0
  0
VERTEX
  5
4FB
  8
DIMENSIONI
 10
-0.3768436578168181
 20
25.91146311647971
 30
0.0
  0
VERTEX
  5
4FC
  8
DIMENSIONI
 10
-0.6047197640115083
 20
25.64800441441481
 30
0.0
  0
VERTEX
  5
4FD
  8
DIMENSIONI
 10
-1.201327433628028
 20
25.00493656780714
 30
0.0
  0
VERTEX
  5
4FE
  8
DIMENSIONI
 10
-1.522123893805019
 20
24.68045279199594
 30
0.0
  0
VERTEX
  5
4FF
  8
DIMENSIONI
 10
-0.4778761061943992
 20
24.68045279199594
 30
0.0
  0
VERTEX
  5
500
  8
DIMENSIONI
 10
-0.206858407079355
 20
24.68635249701068
 30
0.0
  0
VERTEX
  5
501
  8
DIMENSIONI
 10
-0.0309734513271425
 20
24.70405161205493
 30
0.0
  0
VERTEX
  5
502
  8
DIMENSIONI
 10
0.0910766961654828
 20
24.73981857370685
 30
0.0
  0
VERTEX
  5
503
  8
DIMENSIONI
 10
0.2005899705017657
 20
24.79992181854461
 30
0.0
  0
VERTEX
  5
504
  8
DIMENSIONI
 10
0.2505530973454236
 20
24.83983701028502
 30
0.0
  0
VERTEX
  5
505
  8
DIMENSIONI
 10
0.297197640118285
 20
24.88731119907558
 30
0.0
  0
VERTEX
  5
506
  8
DIMENSIONI
 10
0.3805309734516185
 20
25.00493656780715
 30
0.0
  0
SEQEND
  5
857
  8
DIMENSIONI
  0
POLYLINE
  5
A6
  8
DIMENSIONI
 66
     1
 10
0.0
 20
0.0
 30
0.0
 70
     1
  0
VERTEX
  5
507
  8
DIMENSIONI
 10
1.495575221239229
 20
24.80729644981304
 30
0.0
  0
VERTEX
  5
508
  8
DIMENSIONI
 10
1.56213126843687
 20
24.80130456190744
 30
0.0
  0
VERTEX
  5
509
  8
DIMENSIONI
 10
1.623156342183182
 20
24.78332889819063
 30
0.0
  0
VERTEX
  5
50A
  8
DIMENSIONI
 10
1.678650442478167
 20
24.7533694586626
 30
0.0
  0
VERTEX
  5
50B
  8
DIMENSIONI
 10
1.728613569321825
 20
24.71142624332337
 30
0.0
  0
VERTEX
  5
50C
  8
DIMENSIONI
 10
1.76991150442507
 20
24.66100220202543
 30
0.0
  0
VERTEX
  5
50D
  8
DIMENSIONI
 10
1.799410029498816
 20
24.6056002846213
 30
0.0
  0
VERTEX
  5
50E
  8
DIMENSIONI
 10
1.817109144543064
 20
24.54522049111098
 30
0.0
  0
VERTEX
  5
50F
  8
DIMENSIONI
 10
1.823008849557813
 20
24.47986282149446
 30
0.0
  0
VERTEX
  5
510
  8
DIMENSIONI
 10
1.817016961652209
 20
24.41450515187794
 30
0.0
  0
VERTEX
  5
511
  8
DIMENSIONI
 10
1.799041297935394
 20
24.35412535836762
 30
0.0
  0
VERTEX
  5
512
  8
DIMENSIONI
 10
1.769081858407371
 20
24.29872344096349
 30
0.0
  0
VERTEX
  5
513
  8
DIMENSIONI
 10
1.727138643068138
 20
24.24829939966555
 30
0.0
  0
VERTEX
  5
514
  8
DIMENSIONI
 10
1.676714601770203
 20
24.20635618432632
 30
0.0
  0
VERTEX
  5
515
  8
DIMENSIONI
 10
1.621312684366073
 20
24.17639674479829
 30
0.0
  0
VERTEX
  5
516
  8
DIMENSIONI
 10
1.560932890855748
 20
24.15842108108148
 30
0.0
  0
VERTEX
  5
517
  8
DIMENSIONI
 10
1.495575221239229
 20
24.15242919317588
 30
0.0
  0
VERTEX
  5
518
  8
DIMENSIONI
 10
1.43021755162271
 20
24.15842108108148
 30
0.0
  0
VERTEX
  5
519
  8
DIMENSIONI
 10
1.369837758112385
 20
24.17639674479829
 30
0.0
  0
VERTEX
  5
51A
  8
DIMENSIONI
 10
1.314435840708256
 20
24.20635618432632
 30
0.0
  0
VERTEX
  5
51B
  8
DIMENSIONI
 10
1.264011799410321
 20
24.24829939966555
 30
0.0
  0
VERTEX
  5
51C
  8
DIMENSIONI
 10
1.222068584071088
 20
24.29872344096349
 30
0.0
  0
VERTEX
  5
51D
  8
DIMENSIONI
 10
1.192109144543064
 20
24.35412535836762
 30
0.0
  0
VERTEX
  5
51E
  8
DIMENSIONI
 10
1.17413348082625
 20
24.41450515187794
 30
0.0
  0
VERTEX
  5
51F
  8
DIMENSIONI
 10
1.168141592920645
 20
24.47986282149446
 30
0.0
  0
VERTEX
  5
520
  8
DIMENSIONI
 10
1.17413348082625
 20
24.5464188686921
 30
0.0
  0
VERTEX
  5
521
  8
DIMENSIONI
 10
1.192109144543064
 20
24.60744394243841
 30
0.0
  0
VERTEX
  5
522
  8
DIMENSIONI
 10
1.222068584071088
 20
24.6629380427334
 30
0.0
  0
VERTEX
  5
523
  8
DIMENSIONI
 10
1.264011799410321
 20
24.71290116957706
 30
0.0
  0
VERTEX
  5
524
  8
DIMENSIONI
 10
1.314435840708256
 20
24.7541991046803
 30
0.0
  0
VERTEX
  5
525
  8
DIMENSIONI
 10
1.369837758112385
 20
24.78369762975405
 30
0.0
  0
VERTEX
  5
526
  8
DIMENSIONI
 10
1.43021755162271
 20
24.8013967447983
 30
0.0
  0
SEQEND
  5
858
  8
DIMENSIONI
  0
POLYLINE
  5
A7
  8
DIMENSIONI
 66
     1
 10
0.0
 20
0.0
 30
0.0
 70
     1
  0
VERTEX
  5
527
  8
DIMENSIONI
 10
2.469026548672857
 20
26.21142624332337
 30
0.0
  0
VERTEX
  5
528
  8
DIMENSIONI
 10
2.481932153392621
 20
26.54171754125847
 30
0.0
  0
VERTEX
  5
529
  8
DIMENSIONI
 10
2.520648967551913
 20
26.84822565335287
 30
0.0
  0
VERTEX
  5
52A
  8
DIMENSIONI
 10
2.549686578171382
 20
26.9925610147098
 30
0.0
  0
VERTEX
  5
52B
  8
DIMENSIONI
 10
2.585176991150734
 20
27.13095057960656
 30
0.0
  0
VERTEX
  5
52C
  8
DIMENSIONI
 10
2.627120206489966
 20
27.26339434804313
 30
0.0
  0
VERTEX
  5
52D
  8
DIMENSIONI
 10
2.675516224189082
 20
27.38989232001953
 30
0.0
  0
VERTEX
  5
52E
  8
DIMENSIONI
 10
2.787241887905895
 20
27.62117919317588
 30
0.0
  0
VERTEX
  5
52F
  8
DIMENSIONI
 10
2.849465339233329
 20
27.72500017400183
 30
0.0
  0
VERTEX
  5
530
  8
DIMENSIONI
 10
2.915929203540114
 20
27.82093951765965
 30
0.0
  0
VERTEX
  5
531
  8
DIMENSIONI
 10
2.986633480826249
 20
27.90899722414932
 30
0.0
  0
VERTEX
  5
532
  8
DIMENSIONI
 10
3.061578171091736
 20
27.98917329347086
 30
0.0
  0
VERTEX
  5
533
  8
DIMENSIONI
 10
3.140763274336574
 20
28.06146772562425
 30
0.0
  0
VERTEX
  5
534
  8
DIMENSIONI
 10
3.224188790560762
 20
28.12588052060951
 30
0.0
  0
VERTEX
  5
535
  8
DIMENSIONI
 10
3.358038348082887
 20
28.20976695128797
 30
0.0
  0
VERTEX
  5
536
  8
DIMENSIONI
 10
3.494100294985541
 20
28.26968583034402
 30
0.0
  0
VERTEX
  5
537
  8
DIMENSIONI
 10
3.632374631268728
 20
28.30563715777765
 30
0.0
  0
VERTEX
  5
538
  8
DIMENSIONI
 10
3.772861356932444
 20
28.31762093358886
 30
0.0
  0
VERTEX
  5
539
  8
DIMENSIONI
 10
3.886430678466367
 20
28.31029239376585
 30
0.0
  0
VERTEX
  5
53A
  8
DIMENSIONI
 10
3.997050147492916
 20
28.28830677429682
 30
0.0
  0
VERTEX
  5
53B
  8
DIMENSIONI
 10
4.104719764012089
 20
28.25166407518178
 30
0.0
  0
VERTEX
  5
53C
  8
DIMENSIONI
 10
4.209439528023889
 20
28.20036429642072
 30
0.0
  0
VERTEX
  5
53D
  8
DIMENSIONI
 10
4.311209439528314
 20
28.13440743801363
 30
0.0
  0
VERTEX
  5
53E
  8
DIMENSIONI
 10
4.410029498525364
 20
28.05379349996053
 30
0.0
  0
VERTEX
  5
53F
  8
DIMENSIONI
 10
4.50589970501504
 20
27.95852248226142
 30
0.0
  0
VERTEX
  5
540
  8
DIMENSIONI
 10
4.59882005899734
 20
27.84859438491629
 30
0.0
  0
VERTEX
  5
541
  8
DIMENSIONI
 10
4.70598266961681
 20
27.69686134656821
 30
0.0
  0
VERTEX
  5
542
  8
DIMENSIONI
 10
4.798856932153683
 20
27.53222270350036
 30
0.0
  0
VERTEX
  5
543
  8
DIMENSIONI
 10
4.87744284660796
 20
27.35467845571275
 30
0.0
  0
VERTEX
  5
544
  8
DIMENSIONI
 10
4.941740412979641
 20
27.16422860320537
 30
0.0
  0
VERTEX
  5
545
  8
DIMENSIONI
 10
4.991749631268727
 20
26.96087314597824
 30
0.0
  0
VERTEX
  5
546
  8
DIMENSIONI
 10
5.027470501475216
 20
26.74461208403134
 30
0.0
  0
VERTEX
  5
547
  8
DIMENSIONI
 10
5.04890302359911
 20
26.51544541736467
 30
0.0
  0
VERTEX
  5
548
  8
DIMENSIONI
 10
5.056047197640408
 20
26.27337314597824
 30
0.0
  0
VERTEX
  5
549
  8
DIMENSIONI
 10
5.043510324484067
 20
25.93838052060951
 30
0.0
  0
VERTEX
  5
54A
  8
DIMENSIONI
 10
5.00589970501504
 20
25.62956783624372
 30
0.0
  0
VERTEX
  5
54B
  8
DIMENSIONI
 10
4.97769174041327
 20
25.48497897193694
 30
0.0
  0
VERTEX
  5
54C
  8
DIMENSIONI
 10
4.943215339233329
 20
25.34693509288089
 30
0.0
  0
VERTEX
  5
54D
  8
DIMENSIONI
 10
4.902470501475217
 20
25.21543619907558
 30
0.0
  0
VERTEX
  5
54E
  8
DIMENSIONI
 10
4.855457227138934
 20
25.09048229052101
 30
0.0
  0
VERTEX
  5
54F
  8
DIMENSIONI
 10
4.748248525074038
 20
24.86380456190744
 30
0.0
  0
VERTEX
  5
550
  8
DIMENSIONI
 10
4.627212389380823
 20
24.67049703978355
 30
0.0
  0
VERTEX
  5
551
  8
DIMENSIONI
 10
4.561509033923596
 20
24.58635710615523
 30
0.0
  0
VERTEX
  5
552
  8
DIMENSIONI
 10
4.492348820059288
 20
24.51055972414932
 30
0.0
  0
VERTEX
  5
553
  8
DIMENSIONI
 10
4.419731747787901
 20
24.44310489376584
 30
0.0
  0
VERTEX
  5
554
  8
DIMENSIONI
 10
4.343657817109435
 20
24.38399261500479
 30
0.0
  0
VERTEX
  5
555
  8
DIMENSIONI
 10
4.189435840708255
 20
24.28784585984254
 30
0.0
  0
VERTEX
  5
556
  8
DIMENSIONI
 10
4.037979351032739
 20
24.21916960615523
 30
0.0
  0
VERTEX
  5
557
  8
DIMENSIONI
 10
3.889288348082887
 20
24.17796385394284
 30
0.0
  0
VERTEX
  5
558
  8
DIMENSIONI
 10
3.743362831858698
 20
24.16422860320538
 30
0.0
  0
VERTEX
  5
559
  8
DIMENSIONI
 10
3.60329092920383
 20
24.17478354420833
 30
0.0
  0
VERTEX
  5
55A
  8
DIMENSIONI
 10
3.469210914454568
 20
24.20644836721718
 30
0.0
  0
VERTEX
  5
55B
  8
DIMENSIONI
 10
3.34112278761091
 20
24.25922307223193
 30
0.0
  0
VERTEX
  5
55C
  8
DIMENSIONI
 10
3.219026548672857
 20
24.33310765925258
 30
0.0
  0
VERTEX
  5
55D
  8
DIMENSIONI
 10
3.102922197640408
 20
24.42810212827912
 30
0.0
  0
VERTEX
  5
55E
  8
DIMENSIONI
 10
2.992809734513565
 20
24.54420647931157
 30
0.0
  0
VERTEX
  5
55F
  8
DIMENSIONI
 10
2.888689159292325
 20
24.68142071234992
 30
0.0
  0
VERTEX
  5
560
  8
DIMENSIONI
 10
2.790560471976692
 20
24.83974482739417
 30
0.0
  0
VERTEX
  5
561
  8
DIMENSIONI
 10
2.715200958702355
 20
24.98571643506378
 30
0.0
  0
VERTEX
  5
562
  8
DIMENSIONI
 10
2.649889380531264
 20
25.13897049111098
 30
0.0
  0
VERTEX
  5
563
  8
DIMENSIONI
 10
2.594625737463418
 20
25.29950699553576
 30
0.0
  0
VERTEX
  5
564
  8
DIMENSIONI
 10
2.549410029498816
 20
25.46732594833812
 30
0.0
  0
VERTEX
  5
565
  8
DIMENSIONI
 10
2.514242256637458
 20
25.64242734951806
 30
0.0
  0
VERTEX
  5
566
  8
DIMENSIONI
 10
2.489122418879346
 20
25.82481119907558
 30
0.0
  0
VERTEX
  5
567
  8
DIMENSIONI
 10
2.474050516224479
 20
26.01447749701069
 30
0.0
  0
SEQEND
  5
859
  8
DIMENSIONI
  0
POLYLINE
  5
A8
  8
DIMENSIONI
 66
     1
 10
0.0
 20
0.0
 30
0.0
 70
     1
  0
VERTEX
  5
568
  8
DIMENSIONI
 10
3.047197640118285
 20
26.137679930639
 30
0.0
  0
VERTEX
  5
569
  8
DIMENSIONI
 10
3.059918879056338
 20
25.74369025512278
 30
0.0
  0
VERTEX
  5
56A
  8
DIMENSIONI
 10
3.098082595870497
 20
25.387679930639
 30
0.0
  0
VERTEX
  5
56B
  8
DIMENSIONI
 10
3.126705383481117
 20
25.22391702503428
 30
0.0
  0
VERTEX
  5
56C
  8
DIMENSIONI
 10
3.161688790560763
 20
25.06964895718767
 30
0.0
  0
VERTEX
  5
56D
  8
DIMENSIONI
 10
3.203032817109435
 20
24.92487572709918
 30
0.0
  0
VERTEX
  5
56E
  8
DIMENSIONI
 10
3.250737463127134
 20
24.7895973347688
 30
0.0
  0
VERTEX
  5
56F
  8
DIMENSIONI
 10
3.295353982301175
 20
24.68658295423782
 30
0.0
  0
VERTEX
  5
570
  8
DIMENSIONI
 10
3.345132743363123
 20
24.59730382444431
 30
0.0
  0
VERTEX
  5
571
  8
DIMENSIONI
 10
3.400073746312975
 20
24.52175994538826
 30
0.0
  0
VERTEX
  5
572
  8
DIMENSIONI
 10
3.460176991150733
 20
24.45995131706968
 30
0.0
  0
VERTEX
  5
573
  8
DIMENSIONI
 10
3.525442477876397
 20
24.41187793948856
 30
0.0
  0
VERTEX
  5
574
  8
DIMENSIONI
 10
3.595870206489966
 20
24.3775398126449
 30
0.0
  0
VERTEX
  5
575
  8
DIMENSIONI
 10
3.671460176991441
 20
24.35693693653871
 30
0.0
  0
VERTEX
  5
576
  8
DIMENSIONI
 10
3.752212389380822
 20
24.35006931116998
 30
0.0
  0
VERTEX
  5
577
  8
DIMENSIONI
 10
3.83259587020678
 20
24.35901105158296
 30
0.0
  0
VERTEX
  5
578
  8
DIMENSIONI
 10
3.914454277286426
 20
24.3858362728219
 30
0.0
  0
VERTEX
  5
579
  8
DIMENSIONI
 10
3.99778761061976
 20
24.43054497488679
 30
0.0
  0
VERTEX
  5
57A
  8
DIMENSIONI
 10
4.082595870206781
 20
24.49313715777765
 30
0.0
  0
VERTEX
  5
57B
  8
DIMENSIONI
 10
4.16297935103274
 20
24.57674703978354
 30
0.0
  0
VERTEX
  5
57C
  8
DIMENSIONI
 10
4.233038348082887
 20
24.68450883919358
 30
0.0
  0
VERTEX
  5
57D
  8
DIMENSIONI
 10
4.292772861357223
 20
24.81642255600773
 30
0.0
  0
VERTEX
  5
57E
  8
DIMENSIONI
 10
4.342182890855748
 20
24.97248819022602
 30
0.0
  0
VERTEX
  5
57F
  8
DIMENSIONI
 10
4.401548672566662
 20
25.25217108108148
 30
0.0
  0
VERTEX
  5
580
  8
DIMENSIONI
 10
4.443952802360172
 20
25.58384512237942
 30
0.0
  0
VERTEX
  5
581
  8
DIMENSIONI
 10
4.469395280236279
 20
25.96751031411983
 30
0.0
  0
VERTEX
  5
582
  8
DIMENSIONI
 10
4.477876106194981
 20
26.40316665630272
 30
0.0
  0
VERTEX
  5
583
  8
DIMENSIONI
 10
4.469026548672857
 20
26.73115338196644
 30
0.0
  0
VERTEX
  5
584
  8
DIMENSIONI
 10
4.442477876106485
 20
27.03074777724667
 30
0.0
  0
VERTEX
  5
585
  8
DIMENSIONI
 10
4.398230088495866
 20
27.30194984214343
 30
0.0
  0
VERTEX
  5
586
  8
DIMENSIONI
 10
4.336283185840998
 20
27.5447595766567
 30
0.0
  0
VERTEX
  5
587
  8
DIMENSIONI
 10
4.279314159292326
 20
27.70202358845611
 30
0.0
  0
VERTEX
  5
588
  8
DIMENSIONI
 10
4.214601769911796
 20
27.83458258550626
 30
0.0
  0
VERTEX
  5
589
  8
DIMENSIONI
 10
4.142146017699407
 20
27.94243656780715
 30
0.0
  0
VERTEX
  5
58A
  8
DIMENSIONI
 10
4.061946902655158
 20
28.02558553535877
 30
0.0
  0
VERTEX
  5
58B
  8
DIMENSIONI
 10
3.998340707964892
 20
28.06817403093399
 30
0.0
  0
VERTEX
  5
58C
  8
DIMENSIONI
 10
3.928466076696456
 20
28.09859438491629
 30
0.0
  0
VERTEX
  5
58D
  8
DIMENSIONI
 10
3.852323008849848
 20
28.11684659730567
 30
0.0
  0
VERTEX
  5
58E
  8
DIMENSIONI
 10
3.769911504425069
 20
28.12293066810213
 30
0.0
  0
VERTEX
  5
58F
  8
DIMENSIONI
 10
3.672382005899996
 20
28.11168435541776
 30
0.0
  0
VERTEX
  5
590
  8
DIMENSIONI
 10
3.580383480826249
 20
28.07794541736467
 30
0.0
  0
VERTEX
  5
591
  8
DIMENSIONI
 10
3.493915929203831
 20
28.02171385394284
 30
0.0
  0
VERTEX
  5
592
  8
DIMENSIONI
 10
3.412979351032739
 20
27.94298966515228
 30
0.0
  0
VERTEX
  5
593
  8
DIMENSIONI
 10
3.362002212389671
 20
27.87740153830862
 30
0.0
  0
VERTEX
  5
594
  8
DIMENSIONI
 10
3.315265486725954
 20
27.80305603683369
 30
0.0
  0
VERTEX
  5
595
  8
DIMENSIONI
 10
3.272769174041589
 20
27.7199531607275
 30
0.0
  0
VERTEX
  5
596
  8
DIMENSIONI
 10
3.234513274336574
 20
27.62809290999004
 30
0.0
  0
VERTEX
  5
597
  8
DIMENSIONI
 10
3.170722713864597
 20
27.41810028462131
 30
0.0
  0
VERTEX
  5
598
  8
DIMENSIONI
 10
3.123893805310025
 20
27.1730781607275
 30
0.0
  0
VERTEX
  5
599
  8
DIMENSIONI
 10
3.090339233038639
 20
26.91146311647971
 30
0.0
  0
VERTEX
  5
59A
  8
DIMENSIONI
 10
3.06637168141622
 20
26.65169173004903
 30
0.0
  0
VERTEX
  5
59B
  8
DIMENSIONI
 10
3.051991150442769
 20
26.39376400143546
 30
0.0
  0
SEQEND
  5
85A
  8
DIMENSIONI
  0
POLYLINE
  5
A9
  8
DIMENSIONI
 66
     1
 10
0.0
 20
0.0
 30
0.0
  0
VERTEX
  5
59C
  8
DIMENSIONI
 10
-12.76393202249992
 20
26.3176209336065
 30
0.0
  0
VERTEX
  5
59D
  8
DIMENSIONI
 10
-5.556047197639827
 20
26.31762093359653
 30
0.0
  0
SEQEND
  5
85B
  8
DIMENSIONI
  0
POLYLINE
  5
AA
  8
DIMENSIONI
 66
     1
 10
0.0
 20
0.0
 30
0.0
  0
VERTEX
  5
59E
  8
DIMENSIONI
 10
5.556047197640408
 20
26.31762093358118
 30
0.0
  0
VERTEX
  5
59F
  8
DIMENSIONI
 10
12.7639320225005
 20
26.31762093357122
 30
0.0
  0
SEQEND
  5
85C
  8
DIMENSIONI
  0
POLYLINE
  5
AB
  8
DIMENSIONI
 66
     1
 10
0.0
 20
0.0
 30
0.0
  0
VERTEX
  5
5A0
  8
DIMENSIONI
 10
-15.99999999999971
 20
26.31762093361097
 30
0.0
  0
VERTEX
  5
5A1
  8
DIMENSIONI
 10
-15.99999999999695
 20
28.31762093361097
 30
0.0
  0
SEQEND
  5
85D
  8
DIMENSIONI
  0
POLYLINE
  5
AC
  8
DIMENSIONI
 66
     1
 10
0.0
 20
0.0
 30
0.0
  0
VERTEX
  5
5A2
  8
DIMENSIONI
 10
16.00000000000029
 20
26.31762093356674
 30
0.0
  0
VERTEX
  5
5A3
  8
DIMENSIONI
 10
16.00000000000306
 20
28.31762093356674
 30
0.0
  0
SEQEND
  5
85E
  8
DIMENSIONI
  0
POLYLINE
  5
AD
  8
DIMENSIONI
 66
     1
 10
0.0
 20
0.0
 30
0.0
  0
VERTEX
  5
5A4
  8
DIMENSIONI
 10
-15.99999999999971
 20
26.31762093361097
 30
0.0
  0
VERTEX
  5
5A5
  8
DIMENSIONI
 10
-12.7639320225013
 20
25.3176209336065
 30
0.0
  0
SEQEND
  5
85F
  8
DIMENSIONI
  0
POLYLINE
  5
AE
  8
DIMENSIONI
 66
     1
 10
0.0
 20
0.0
 30
0.0
  0
VERTEX
  5
5A6
  8
DIMENSIONI
 10
-12.7639320225013
 20
25.3176209336065
 30
0.0
  0
VERTEX
  5
5A7
  8
DIMENSIONI
 10
-12.76393202249854
 20
27.3176209336065
 30
0.0
  0
SEQEND
  5
860
  8
DIMENSIONI
  0
POLYLINE
  5
AF
  8
DIMENSIONI
 66
     1
 10
0.0
 20
0.0
 30
0.0
  0
VERTEX
  5
5A8
  8
DIMENSIONI
 10
-12.76393202249854
 20
27.3176209336065
 30
0.0
  0
VERTEX
  5
5A9
  8
DIMENSIONI
 10
-15.99999999999971
 20
26.31762093361097
 30
0.0
  0
SEQEND
  5
861
  8
DIMENSIONI
  0
POLYLINE
  5
B0
  8
DIMENSIONI
 66
     1
 10
0.0
 20
0.0
 30
0.0
  0
VERTEX
  5
5AA
  8
DIMENSIONI
 10
16.00000000000029
 20
26.31762093356674
 30
0.0
  0
VERTEX
  5
5AB
  8
DIMENSIONI
 10
12.76393202250188
 20
27.31762093357122
 30
0.0
  0
SEQEND
  5
862
  8
DIMENSIONI
  0
POLYLINE
  5
B1
  8
DIMENSIONI
 66
     1
 10
0.0
 20
0.0
 30
0.0
  0
VERTEX
  5
5AC
  8
DIMENSIONI
 10
12.76393202250188
 20
27.31762093357122
 30
0.0
  0
VERTEX
  5
5AD
  8
DIMENSIONI
 10
12.76393202249912
 20
25.31762093357122
 30
0.0
  0
SEQEND
  5
863
  8
DIMENSIONI
  0
POLYLINE
  5
B2
  8
DIMENSIONI
 66
     1
 10
0.0
 20
0.0
 30
0.0
  0
VERTEX
  5
5AE
  8
DIMENSIONI
 10
12.76393202249912
 20
25.31762093357122
 30
0.0
  0
VERTEX
  5
5AF
  8
DIMENSIONI
 10
16.00000000000029
 20
26.31762093356674
 30
0.0
  0
SEQEND
  5
864
  8
DIMENSIONI
  0
POLYLINE
  5
B3
  8
DIMENSIONI
 66
     1
 10
0.0
 20
0.0
 30
0.0
 70
     1
  0
VERTEX
  5
5B0
  8
DIMENSIONI
 10
-2.323008849557522
 20
-28.48574303058936
 30
0.0
  0
VERTEX
  5
5B1
  8
DIMENSIONI
 10
-2.323008849557522
 20
-28.90462208663656
 30
0.0
  0
VERTEX
  5
5B2
  8
DIMENSIONI
 10
-2.859882005899705
 20
-28.90462208663656
 30
0.0
  0
VERTEX
  5
5B3
  8
DIMENSIONI
 10
-2.859882005899705
 20
-29.96066928427668
 30
0.0
  0
VERTEX
  5
5B4
  8
DIMENSIONI
 10
-3.346607669616519
 20
-29.96066928427668
 30
0.0
  0
VERTEX
  5
5B5
  8
DIMENSIONI
 10
-3.346607669616519
 20
-28.90462208663656
 30
0.0
  0
VERTEX
  5
5B6
  8
DIMENSIONI
 10
-5.039823008849557
 20
-28.90462208663656
 30
0.0
  0
VERTEX
  5
5B7
  8
DIMENSIONI
 10
-5.039823008849557
 20
-28.52704096569261
 30
0.0
  0
VERTEX
  5
5B8
  8
DIMENSIONI
 10
-3.184365781710914
 20
-25.87807341407019
 30
0.0
  0
VERTEX
  5
5B9
  8
DIMENSIONI
 10
-2.859882005899705
 20
-25.87807341407019
 30
0.0
  0
VERTEX
  5
5BA
  8
DIMENSIONI
 10
-2.859882005899705
 20
-28.48574303058936
 30
0.0
  0
SEQEND
  5
865
  8
DIMENSIONI
  0
POLYLINE
  5
B4
  8
DIMENSIONI
 66
     1
 10
0.0
 20
0.0
 30
0.0
 70
     1
  0
VERTEX
  5
5BB
  8
DIMENSIONI
 10
-3.346607669616519
 20
-28.48574303058936
 30
0.0
  0
VERTEX
  5
5BC
  8
DIMENSIONI
 10
-3.346607669616519
 20
-26.50049229312624
 30
0.0
  0
VERTEX
  5
5BD
  8
DIMENSIONI
 10
-4.750737463126843
 20
-28.48574303058936
 30
0.0
  0
SEQEND
  5
866
  8
DIMENSIONI
  0
POLYLINE
  5
B5
  8
DIMENSIONI
 66
     1
 10
0.0
 20
0.0
 30
0.0
 70
     1
  0
VERTEX
  5
5BE
  8
DIMENSIONI
 10
-1.405604719764012
 20
-26.3529996677575
 30
0.0
  0
VERTEX
  5
5BF
  8
DIMENSIONI
 10
-0.4321533923303833
 20
-25.87807341407019
 30
0.0
  0
VERTEX
  5
5C0
  8
DIMENSIONI
 10
-0.3348082595870205
 20
-25.87807341407019
 30
0.0
  0
VERTEX
  5
5C1
  8
DIMENSIONI
 10
-0.3348082595870205
 20
-29.25565453501414
 30
0.0
  0
VERTEX
  5
5C2
  8
DIMENSIONI
 10
-0.3278023598820058
 20
-29.52851589194629
 30
0.0
  0
VERTEX
  5
5C3
  8
DIMENSIONI
 10
-0.3190449852507374
 20
-29.61738019873096
 30
0.0
  0
VERTEX
  5
5C4
  8
DIMENSIONI
 10
-0.3067846607669615
 20
-29.67453359106134
 30
0.0
  0
VERTEX
  5
5C5
  8
DIMENSIONI
 10
-0.2889933628318582
 20
-29.71343477100234
 30
0.0
  0
VERTEX
  5
5C6
  8
DIMENSIONI
 10
-0.2636430678466074
 20
-29.74754244061886
 30
0.0
  0
VERTEX
  5
5C7
  8
DIMENSIONI
 10
-0.2307337758112092
 20
-29.77685659991089
 30
0.0
  0
VERTEX
  5
5C8
  8
DIMENSIONI
 10
-0.1902654867256635
 20
-29.80137724887845
 30
0.0
  0
VERTEX
  5
5C9
  8
DIMENSIONI
 10
-0.1345870206489674
 20
-29.82110438752152
 30
0.0
  0
VERTEX
  5
5CA
  8
DIMENSIONI
 10
-0.0560471976401178
 20
-29.8360380158401
 30
0.0
  0
VERTEX
  5
5CB
  8
DIMENSIONI
 10
0.1696165191740415
 20
-29.85152474150382
 30
0.0
  0
VERTEX
  5
5CC
  8
DIMENSIONI
 10
0.1696165191740415
 20
-29.96066928427668
 30
0.0
  0
VERTEX
  5
5CD
  8
DIMENSIONI
 10
-1.334808259587021
 20
-29.96066928427668
 30
0.0
  0
VERTEX
  5
5CE
  8
DIMENSIONI
 10
-1.334808259587021
 20
-29.85152474150382
 30
0.0
  0
VERTEX
  5
5CF
  8
DIMENSIONI
 10
-1.101769911504425
 20
-29.83640674740352
 30
0.0
  0
VERTEX
  5
5D0
  8
DIMENSIONI
 10
-1.022861356932153
 20
-29.82193403353921
 30
0.0
  0
VERTEX
  5
5D1
  8
DIMENSIONI
 10
-0.9690265486725662
 20
-29.80285217513213
 30
0.0
  0
VERTEX
  5
5D2
  8
DIMENSIONI
 10
-0.8989675516224187
 20
-29.75270468250677
 30
0.0
  0
VERTEX
  5
5D3
  8
DIMENSIONI
 10
-0.8539823008849556
 20
-29.68780792734452
 30
0.0
  0
VERTEX
  5
5D4
  8
DIMENSIONI
 10
-0.8397861356932153
 20
-29.63369657041237
 30
0.0
  0
VERTEX
  5
5D5
  8
DIMENSIONI
 10
-0.829646017699115
 20
-29.54363388604659
 30
0.0
  0
VERTEX
  5
5D6
  8
DIMENSIONI
 10
-0.8215339233038346
 20
-29.25565453501414
 30
0.0
  0
VERTEX
  5
5D7
  8
DIMENSIONI
 10
-0.8215339233038346
 20
-27.09636249961591
 30
0.0
  0
VERTEX
  5
5D8
  8
DIMENSIONI
 10
-0.8289085545722711
 20
-26.73795541996989
 30
0.0
  0
VERTEX
  5
5D9
  8
DIMENSIONI
 10
-0.8381268436578169
 20
-26.61738019873096
 30
0.0
  0
VERTEX
  5
5DA
  8
DIMENSIONI
 10
-0.8510324483775809
 20
-26.53589052321473
 30
0.0
  0
VERTEX
  5
5DB
  8
DIMENSIONI
 10
-0.8801622418879054
 20
-26.45403211613509
 30
0.0
  0
VERTEX
  5
5DC
  8
DIMENSIONI
 10
-0.926253687315634
 20
-26.39724745536812
 30
0.0
  0
VERTEX
  5
5DD
  8
DIMENSIONI
 10
-0.986356932153392
 20
-26.36406161466016
 30
0.0
  0
VERTEX
  5
5DE
  8
DIMENSIONI
 10
-1.057522123893805
 20
-26.3529996677575
 30
0.0
  0
VERTEX
  5
5DF
  8
DIMENSIONI
 10
-1.117441002949852
 20
-26.35871500699054
 30
0.0
  0
VERTEX
  5
5E0
  8
DIMENSIONI
 10
-1.188053097345132
 20
-26.37586102468966
 30
0.0
  0
VERTEX
  5
5E1
  8
DIMENSIONI
 10
-1.361356932153392
 20
-26.44444509548612
 30
0.0
  0
SEQEND
  5
867
  8
DIMENSIONI
  0
POLYLINE
  5
B6
  8
DIMENSIONI
 66
     1
 10
0.0
 20
0.0
 30
0.0
 70
     1
  0
VERTEX
  5
5E2
  8
DIMENSIONI
 10
1.662241887905606
 20
-29.388397897846
 30
0.0
  0
VERTEX
  5
5E3
  8
DIMENSIONI
 10
1.728797935103246
 20
-29.3943897857516
 30
0.0
  0
VERTEX
  5
5E4
  8
DIMENSIONI
 10
1.789823008849559
 20
-29.41236544946841
 30
0.0
  0
VERTEX
  5
5E5
  8
DIMENSIONI
 10
1.845317109144544
 20
-29.44232488899644
 30
0.0
  0
VERTEX
  5
5E6
  8
DIMENSIONI
 10
1.895280235988202
 20
-29.48426810433567
 30
0.0
  0
VERTEX
  5
5E7
  8
DIMENSIONI
 10
1.936578171091446
 20
-29.53469214563361
 30
0.0
  0
VERTEX
  5
5E8
  8
DIMENSIONI
 10
1.966076696165193
 20
-29.59009406303774
 30
0.0
  0
VERTEX
  5
5E9
  8
DIMENSIONI
 10
1.983775811209441
 20
-29.65047385654806
 30
0.0
  0
VERTEX
  5
5EA
  8
DIMENSIONI
 10
1.98967551622419
 20
-29.71583152616458
 30
0.0
  0
VERTEX
  5
5EB
  8
DIMENSIONI
 10
1.983683628318585
 20
-29.7811891957811
 30
0.0
  0
VERTEX
  5
5EC
  8
DIMENSIONI
 10
1.965707964601771
 20
-29.84156898929142
 30
0.0
  0
VERTEX
  5
5ED
  8
DIMENSIONI
 10
1.935748525073747
 20
-29.89697090669555
 30
0.0
  0
VERTEX
  5
5EE
  8
DIMENSIONI
 10
1.893805309734514
 20
-29.94739494799349
 30
0.0
  0
VERTEX
  5
5EF
  8
DIMENSIONI
 10
1.843381268436579
 20
-29.98933816333273
 30
0.0
  0
VERTEX
  5
5F0
  8
DIMENSIONI
 10
1.787979351032449
 20
-30.01929760286075
 30
0.0
  0
VERTEX
  5
5F1
  8
DIMENSIONI
 10
1.727599557522125
 20
-30.03727326657756
 30
0.0
  0
VERTEX
  5
5F2
  8
DIMENSIONI
 10
1.662241887905606
 20
-30.04326515448317
 30
0.0
  0
VERTEX
  5
5F3
  8
DIMENSIONI
 10
1.596884218289087
 20
-30.03727326657756
 30
0.0
  0
VERTEX
  5
5F4
  8
DIMENSIONI
 10
1.536504424778762
 20
-30.01929760286075
 30
0.0
  0
VERTEX
  5
5F5
  8
DIMENSIONI
 10
1.481102507374632
 20
-29.98933816333273
 30
0.0
  0
VERTEX
  5
5F6
  8
DIMENSIONI
 10
1.430678466076697
 20
-29.94739494799349
 30
0.0
  0
VERTEX
  5
5F7
  8
DIMENSIONI
 10
1.388735250737464
 20
-29.89697090669555
 30
0.0
  0
VERTEX
  5
5F8
  8
DIMENSIONI
 10
1.358775811209441
 20
-29.84156898929142
 30
0.0
  0
VERTEX
  5
5F9
  8
DIMENSIONI
 10
1.340800147492626
 20
-29.7811891957811
 30
0.0
  0
VERTEX
  5
5FA
  8
DIMENSIONI
 10
1.334808259587022
 20
-29.71583152616458
 30
0.0
  0
VERTEX
  5
5FB
  8
DIMENSIONI
 10
1.340800147492626
 20
-29.64927547896694
 30
0.0
  0
VERTEX
  5
5FC
  8
DIMENSIONI
 10
1.358775811209441
 20
-29.58825040522063
 30
0.0
  0
VERTEX
  5
5FD
  8
DIMENSIONI
 10
1.388735250737464
 20
-29.53275630492564
 30
0.0
  0
VERTEX
  5
5FE
  8
DIMENSIONI
 10
1.430678466076697
 20
-29.48279317808199
 30
0.0
  0
VERTEX
  5
5FF
  8
DIMENSIONI
 10
1.481102507374632
 20
-29.44149524297874
 30
0.0
  0
VERTEX
  5
600
  8
DIMENSIONI
 10
1.536504424778762
 20
-29.41199671790499
 30
0.0
  0
VERTEX
  5
601
  8
DIMENSIONI
 10
1.596884218289087
 20
-29.39429760286075
 30
0.0
  0
SEQEND
  5
868
  8
DIMENSIONI
  0
POLYLINE
  5
B7
  8
DIMENSIONI
 66
     1
 10
0.0
 20
0.0
 30
0.0
 70
     1
  0
VERTEX
  5
602
  8
DIMENSIONI
 10
5.039823008849558
 20
-25.96066928427668
 30
0.0
  0
VERTEX
  5
603
  8
DIMENSIONI
 10
4.809734513274337
 20
-26.46214421053037
 30
0.0
  0
VERTEX
  5
604
  8
DIMENSIONI
 10
3.606194690265487
 20
-26.46214421053037
 30
0.0
  0
VERTEX
  5
605
  8
DIMENSIONI
 10
3.343657817109144
 20
-26.99901736687255
 30
0.0
  0
VERTEX
  5
606
  8
DIMENSIONI
 10
3.534015486725663
 20
-27.03326331082535
 30
0.0
  0
VERTEX
  5
607
  8
DIMENSIONI
 10
3.714233038348082
 20
-27.07847901878995
 30
0.0
  0
VERTEX
  5
608
  8
DIMENSIONI
 10
3.884310471976401
 20
-27.13466449076635
 30
0.0
  0
VERTEX
  5
609
  8
DIMENSIONI
 10
4.044247787610619
 20
-27.20181972675455
 30
0.0
  0
VERTEX
  5
60A
  8
DIMENSIONI
 10
4.194044985250737
 20
-27.27994472675455
 30
0.0
  0
VERTEX
  5
60B
  8
DIMENSIONI
 10
4.333702064896755
 20
-27.36903949076635
 30
0.0
  0
VERTEX
  5
60C
  8
DIMENSIONI
 10
4.463219026548672
 20
-27.46910401878995
 30
0.0
  0
VERTEX
  5
60D
  8
DIMENSIONI
 10
4.58259587020649
 20
-27.58013831082535
 30
0.0
  0
VERTEX
  5
60E
  8
DIMENSIONI
 10
4.674548303834809
 20
-27.68264568545662
 30
0.0
  0
VERTEX
  5
60F
  8
DIMENSIONI
 10
4.754240412979351
 20
-27.78957783884895
 30
0.0
  0
VERTEX
  5
610
  8
DIMENSIONI
 10
4.821672197640118
 20
-27.90093477100234
 30
0.0
  0
VERTEX
  5
611
  8
DIMENSIONI
 10
4.876843657817109
 20
-28.01671648191679
 30
0.0
  0
VERTEX
  5
612
  8
DIMENSIONI
 10
4.919754793510325
 20
-28.13692297159231
 30
0.0
  0
VERTEX
  5
613
  8
DIMENSIONI
 10
4.950405604719764
 20
-28.26155424002889
 30
0.0
  0
VERTEX
  5
614
  8
DIMENSIONI
 10
4.968796091445428
 20
-28.39061028722653
 30
0.0
  0
VERTEX
  5
615
  8
DIMENSIONI
 10
4.974926253687316
 20
-28.52409111318523
 30
0.0
  0
VERTEX
  5
616
  8
DIMENSIONI
 10
4.966906342182891
 20
-28.6789583698224
 30
0.0
  0
VERTEX
  5
617
  8
DIMENSIONI
 10
4.942846607669616
 20
-28.82792592144482
 30
0.0
  0
VERTEX
  5
618
  8
DIMENSIONI
 10
4.902747050147493
 20
-28.97099376805249
 30
0.0
  0
VERTEX
  5
619
  8
DIMENSIONI
 10
4.846607669616519
 20
-29.10816190964541
 30
0.0
  0
VERTEX
  5
61A
  8
DIMENSIONI
 10
4.778300147492626
 20
-29.23740232262476
 30
0.0
  0
VERTEX
  5
61B
  8
DIMENSIONI
 10
4.701696165191741
 20
-29.35668698339172
 30
0.0
  0
VERTEX
  5
61C
  8
DIMENSIONI
 10
4.616795722713865
 20
-29.46601589194629
 30
0.0
  0
VERTEX
  5
61D
  8
DIMENSIONI
 10
4.523598820058997
 20
-29.56538904828848
 30
0.0
  0
VERTEX
  5
61E
  8
DIMENSIONI
 10
4.423488200589971
 20
-29.65517518398169
 30
0.0
  0
VERTEX
  5
61F
  8
DIMENSIONI
 10
4.317846607669617
 20
-29.73574303058936
 30
0.0
  0
VERTEX
  5
620
  8
DIMENSIONI
 10
4.206674041297936
 20
-29.80709258811149
 30
0.0
  0
VERTEX
  5
621
  8
DIMENSIONI
 10
4.089970501474927
 20
-29.86922385654806
 30
0.0
  0
VERTEX
  5
622
  8
DIMENSIONI
 10
3.919247787610619
 20
-29.94020468250676
 30
0.0
  0
VERTEX
  5
623
  8
DIMENSIONI
 10
3.746312684365781
 20
-29.99090527247726
 30
0.0
  0
VERTEX
  5
624
  8
DIMENSIONI
 10
3.571165191740413
 20
-30.02132562645956
 30
0.0
  0
VERTEX
  5
625
  8
DIMENSIONI
 10
3.393805309734513
 20
-30.03146574445367
 30
0.0
  0
VERTEX
  5
626
  8
DIMENSIONI
 10
3.226124631268437
 20
-30.02381456451266
 30
0.0
  0
VERTEX
  5
627
  8
DIMENSIONI
 10
3.082964601769911
 20
-30.00086102468966
 30
0.0
  0
VERTEX
  5
628
  8
DIMENSIONI
 10
2.964325221238938
 20
-29.96260512498464
 30
0.0
  0
VERTEX
  5
629
  8
DIMENSIONI
 10
2.870206489675516
 20
-29.90904686539762
 30
0.0
  0
VERTEX
  5
62A
  8
DIMENSIONI
 10
2.798580383480826
 20
-29.84627031672505
 30
0.0
  0
VERTEX
  5
62B
  8
DIMENSIONI
 10
2.747418879056047
 20
-29.7803595497634
 30
0.0
  0
VERTEX
  5
62C
  8
DIMENSIONI
 10
2.71672197640118
 20
-29.71131456451266
 30
0.0
  0
VERTEX
  5
62D
  8
DIMENSIONI
 10
2.706489675516224
 20
-29.63913536097284
 30
0.0
  0
VERTEX
  5
62E
  8
DIMENSIONI
 10
2.710730088495575
 20
-29.59903580345072
 30
0.0
  0
VERTEX
  5
62F
  8
DIMENSIONI
 10
2.723451327433628
 20
-29.56133300109084
 30
0.0
  0
VERTEX
  5
630
  8
DIMENSIONI
 10
2.744653392330384
 20
-29.5260269538932
 30
0.0
  0
VERTEX
  5
631
  8
DIMENSIONI
 10
2.774336283185841
 20
-29.4931176618578
 30
0.0
  0
VERTEX
  5
632
  8
DIMENSIONI
 10
2.81047197640118
 20
-29.4653706117103
 30
0.0
  0
VERTEX
  5
633
  8
DIMENSIONI
 10
2.851032448377581
 20
-29.44555129017638
 30
0.0
  0
VERTEX
  5
634
  8
DIMENSIONI
 10
2.896017699115044
 20
-29.43365969725603
 30
0.0
  0
VERTEX
  5
635
  8
DIMENSIONI
 10
2.945427728613569
 20
-29.42969583294924
 30
0.0
  0
VERTEX
  5
636
  8
DIMENSIONI
 10
3.017330383480826
 20
-29.43559553796399
 30
0.0
  0
VERTEX
  5
637
  8
DIMENSIONI
 10
3.079646017699115
 20
-29.45329465300824
 30
0.0
  0
VERTEX
  5
638
  8
DIMENSIONI
 10
3.157448377581121
 20
-29.49533005123833
 30
0.0
  0
VERTEX
  5
639
  8
DIMENSIONI
 10
3.275811209439528
 20
-29.5742386058106
 30
0.0
  0
VERTEX
  5
63A
  8
DIMENSIONI
 10
3.386799410029498
 20
-29.64134775035338
 30
0.0
  0
VERTEX
  5
63B
  8
DIMENSIONI
 10
3.498525073746313
 20
-29.68928285359821
 30
0.0
  0
VERTEX
  5
63C
  8
DIMENSIONI
 10
3.61098820058997
 20
-29.71804391554512
 30
0.0
  0
VERTEX
  5
63D
  8
DIMENSIONI
 10
3.724188790560472
 20
-29.72763093619408
 30
0.0
  0
VERTEX
  5
63E
  8
DIMENSIONI
 10
3.80915837020649
 20
-29.72355184327373
 30
0.0
  0
VERTEX
  5
63F
  8
DIMENSIONI
 10
3.891500737463127
 20
-29.71131456451267
 30
0.0
  0
VERTEX
  5
640
  8
DIMENSIONI
 10
3.971215892330383
 20
-29.69091909991089
 30
0.0
  0
VERTEX
  5
641
  8
DIMENSIONI
 10
4.04830383480826
 20
-29.66236544946842
 30
0.0
  0
VERTEX
  5
642
  8
DIMENSIONI
 10
4.122764564896756
 20
-29.62565361318523
 30
0.0
  0
VERTEX
  5
643
  8
DIMENSIONI
 10
4.194598082595871
 20
-29.58078359106134
 30
0.0
  0
VERTEX
  5
644
  8
DIMENSIONI
 10
4.263804387905606
 20
-29.52775538309673
 30
0.0
  0
VERTEX
  5
645
  8
DIMENSIONI
 10
4.330383480825959
 20
-29.46656898929142
 30
0.0
  0
VERTEX
  5
646
  8
DIMENSIONI
 10
4.391569874631268
 20
-29.39952898191679
 30
0.0
  0
VERTEX
  5
647
  8
DIMENSIONI
 10
4.444598082595871
 20
-29.32893993324423
 30
0.0
  0
VERTEX
  5
648
  8
DIMENSIONI
 10
4.489468104719764
 20
-29.25480184327373
 30
0.0
  0
VERTEX
  5
649
  8
DIMENSIONI
 10
4.526179941002949
 20
-29.17711471200529
 30
0.0
  0
VERTEX
  5
64A
  8
DIMENSIONI
 10
4.554733591445427
 20
-29.09587853943892
 30
0.0
  0
VERTEX
  5
64B
  8
DIMENSIONI
 10
4.575129056047198
 20
-29.01109332557461
 30
0.0
  0
VERTEX
  5
64C
  8
DIMENSIONI
 10
4.58736633480826
 20
-28.92275907041237
 30
0.0
  0
VERTEX
  5
64D
  8
DIMENSIONI
 10
4.591445427728614
 20
-28.83087577395219
 30
0.0
  0
VERTEX
  5
64E
  8
DIMENSIONI
 10
4.576880530973452
 20
-28.65250188014688
 30
0.0
  0
VERTEX
  5
64F
  8
DIMENSIONI
 10
4.533185840707965
 20
-28.48021205713803
 30
0.0
  0
VERTEX
  5
650
  8
DIMENSIONI
 10
4.460361356932154
 20
-28.31400630492564
 30
0.0
  0
VERTEX
  5
651
  8
DIMENSIONI
 10
4.358407079646017
 20
-28.15388462350971
 30
0.0
  0
VERTEX
  5
652
  8
DIMENSIONI
 10
4.230825958702065
 20
-28.00574671790499
 30
0.0
  0
VERTEX
  5
653
  8
DIMENSIONI
 10
4.081120943952802
 20
-27.87549229312624
 30
0.0
  0
VERTEX
  5
654
  8
DIMENSIONI
 10
3.909292035398229
 20
-27.76312134917343
 30
0.0
  0
VERTEX
  5
655
  8
DIMENSIONI
 10
3.715339233038348
 20
-27.66863388604659
 30
0.0
  0
VERTEX
  5
656
  8
DIMENSIONI
 10
3.540007374631268
 20
-27.60926810433568
 30
0.0
  0
VERTEX
  5
657
  8
DIMENSIONI
 10
3.335545722713865
 20
-27.56391412203479
 30
0.0
  0
VERTEX
  5
658
  8
DIMENSIONI
 10
3.101954277286135
 20
-27.53257193914393
 30
0.0
  0
VERTEX
  5
659
  8
DIMENSIONI
 10
2.839233038348083
 20
-27.51524155566311
 30
0.0
  0
VERTEX
  5
65A
  8
DIMENSIONI
 10
3.606194690265487
 20
-25.96066928427668
 30
0.0
  0
SEQEND
  5
869
  8
DIMENSIONI
  0
POLYLINE
  5
B8
  8
DIMENSIONI
 66
     1
 10
0.0
 20
0.0
 30
0.0
  0
VERTEX
  5
65B
  8
DIMENSIONI
 10
-17.51393202250021
 20
-27.87807341407019
 30
0.0
  0
VERTEX
  5
65C
  8
DIMENSIONI
 10
-5.539823008849556
 20
-27.87807341407019
 30
0.0
  0
SEQEND
  5
86A
  8
DIMENSIONI
  0
POLYLINE
  5
B9
  8
DIMENSIONI
 66
     1
 10
0.0
 20
0.0
 30
0.0
  0
VERTEX
  5
65D
  8
DIMENSIONI
 10
5.539823008849556
 20
-27.87807341407019
 30
0.0
  0
VERTEX
  5
65E
  8
DIMENSIONI
 10
17.51393202250021
 20
-27.87807341407019
 30
0.0
  0
SEQEND
  5
86B
  8
DIMENSIONI
  0
POLYLINE
  5
BA
  8
DIMENSIONI
 66
     1
 10
0.0
 20
0.0
 30
0.0
  0
VERTEX
  5
65F
  8
DIMENSIONI
 10
-20.75
 20
-2.5
 30
0.0
  0
VERTEX
  5
660
  8
DIMENSIONI
 10
-20.75
 20
-29.87807341407019
 30
0.0
  0
SEQEND
  5
86C
  8
DIMENSIONI
  0
POLYLINE
  5
BB
  8
DIMENSIONI
 66
     1
 10
0.0
 20
0.0
 30
0.0
  0
VERTEX
  5
661
  8
DIMENSIONI
 10
20.75
 20
-2.5
 30
0.0
  0
VERTEX
  5
662
  8
DIMENSIONI
 10
20.75
 20
-29.87807341407019
 30
0.0
  0
SEQEND
  5
86D
  8
DIMENSIONI
  0
POLYLINE
  5
BC
  8
DIMENSIONI
 66
     1
 10
0.0
 20
0.0
 30
0.0
  0
VERTEX
  5
663
  8
DIMENSIONI
 10
-20.75
 20
-27.87807341407019
 30
0.0
  0
VERTEX
  5
664
  8
DIMENSIONI
 10
-17.51393202250021
 20
-28.87807341407019
 30
0.0
  0
SEQEND
  5
86E
  8
DIMENSIONI
  0
POLYLINE
  5
BD
  8
DIMENSIONI
 66
     1
 10
0.0
 20
0.0
 30
0.0
  0
VERTEX
  5
665
  8
DIMENSIONI
 10
-17.51393202250021
 20
-28.87807341407019
 30
0.0
  0
VERTEX
  5
666
  8
DIMENSIONI
 10
-17.51393202250021
 20
-26.87807341407019
 30
0.0
  0
SEQEND
  5
86F
  8
DIMENSIONI
  0
POLYLINE
  5
BE
  8
DIMENSIONI
 66
     1
 10
0.0
 20
0.0
 30
0.0
  0
VERTEX
  5
667
  8
DIMENSIONI
 10
-17.51393202250021
 20
-26.87807341407019
 30
0.0
  0
VERTEX
  5
668
  8
DIMENSIONI
 10
-20.75
 20
-27.87807341407019
 30
0.0
  0
SEQEND
  5
870
  8
DIMENSIONI
  0
POLYLINE
  5
BF
  8
DIMENSIONI
 66
     1
 10
0.0
 20
0.0
 30
0.0
  0
VERTEX
  5
669
  8
DIMENSIONI
 10
20.75
 20
-27.87807341407019
 30
0.0
  0
VERTEX
  5
66A
  8
DIMENSIONI
 10
17.51393202250021
 20
-26.87807341407019
 30
0.0
  0
SEQEND
  5
871
  8
DIMENSIONI
  0
POLYLINE
  5
C0
  8
DIMENSIONI
 66
     1
 10
0.0
 20
0.0
 30
0.0
  0
VERTEX
  5
66B
  8
DIMENSIONI
 10
17.51393202250021
 20
-26.87807341407019
 30
0.0
  0
VERTEX
  5
66C
  8
DIMENSIONI
 10
17.51393202250021
 20
-28.87807341407019
 30
0.0
  0
SEQEND
  5
872
  8
DIMENSIONI
  0
POLYLINE
  5
C1
  8
DIMENSIONI
 66
     1
 10
0.0
 20
0.0
 30
0.0
  0
VERTEX
  5
66D
  8
DIMENSIONI
 10
17.51393202250021
 20
-28.87807341407019
 30
0.0
  0
VERTEX
  5
66E
  8
DIMENSIONI
 10
20.75
 20
-27.87807341407019
 30
0.0
  0
SEQEND
  5
873
  8
DIMENSIONI
  0
POLYLINE
  5
C2
  8
DIMENSIONI
 66
     1
 10
0.0
 20
0.0
 30
0.0
 70
     1
  0
VERTEX
  5
66F
  8
DIMENSIONI
 10
-4.994100294985246
 20
0.5395494171574908
 30
0.0
  0
VERTEX
  5
670
  8
DIMENSIONI
 10
-4.9029314159292
 20
0.7300914525557205
 30
0.0
  0
VERTEX
  5
671
  8
DIMENSIONI
 10
-4.800516224188787
 20
0.8975877652400863
 30
0.0
  0
VERTEX
  5
672
  8
DIMENSIONI
 10
-4.686854719764009
 20
1.042038355210588
 30
0.0
  0
VERTEX
  5
673
  8
DIMENSIONI
 10
-4.561946902654864
 20
1.163443222467225
 30
0.0
  0
VERTEX
  5
674
  8
DIMENSIONI
 10
-4.494676438053093
 20
1.214950412732712
 30
0.0
  0
VERTEX
  5
675
  8
DIMENSIONI
 10
-4.423396017699112
 20
1.259589977629467
 30
0.0
  0
VERTEX
  5
676
  8
DIMENSIONI
 10
-4.348105641592917
 20
1.297361917157491
 30
0.0
  0
VERTEX
  5
677
  8
DIMENSIONI
 10
-4.26880530973451
 20
1.328266231316783
 30
0.0
  0
VERTEX
  5
678
  8
DIMENSIONI
 10
-4.185495022123891
 20
1.352302920107344
 30
0.0
  0
VERTEX
  5
679
  8
DIMENSIONI
 10
-4.098174778761059
 20
1.369471983529172
 30
0.0
  0
VERTEX
  5
67A
  8
DIMENSIONI
 10
-3.911504424778757
 20
1.383207234266635
 30
0.0
  0
VERTEX
  5
67B
  8
DIMENSIONI
 10
-3.794800884955749
 20
1.378321541051296
 30
0.0
  0
VERTEX
  5
67C
  8
DIMENSIONI
 10
-3.685103244837754
 20
1.363664461405278
 30
0.0
  0
VERTEX
  5
67D
  8
DIMENSIONI
 10
-3.582411504424775
 20
1.339235995328582
 30
0.0
  0
VERTEX
  5
67E
  8
DIMENSIONI
 10
-3.48672566371681
 20
1.305036142821207
 30
0.0
  0
VERTEX
  5
67F
  8
DIMENSIONI
 10
-3.398045722713861
 20
1.261064903883155
 30
0.0
  0
VERTEX
  5
680
  8
DIMENSIONI
 10
-3.316371681415926
 20
1.207322278514423
 30
0.0
  0
VERTEX
  5
681
  8
DIMENSIONI
 10
-3.241703539823005
 20
1.143808266715013
 30
0.0
  0
VERTEX
  5
682
  8
DIMENSIONI
 10
-3.1740412979351
 20
1.070522868484924
 30
0.0
  0
VERTEX
  5
683
  8
DIMENSIONI
 10
-3.088864306784656
 20
0.9519756708448063
 30
0.0
  0
VERTEX
  5
684
  8
DIMENSIONI
 10
-3.028023598820055
 20
0.8293724260070481
 30
0.0
  0
VERTEX
  5
685
  8
DIMENSIONI
 10
-2.991519174041294
 20
0.7027131339716499
 30
0.0
  0
VERTEX
  5
686
  8
DIMENSIONI
 10
-2.979351032448374
 20
0.5719977947386115
 30
0.0
  0
VERTEX
  5
687
  8
DIMENSIONI
 10
-2.987924041297932
 20
0.4623923375114729
 30
0.0
  0
VERTEX
  5
688
  8
DIMENSIONI
 10
-3.013643067846604
 20
0.3518650513757797
 30
0.0
  0
VERTEX
  5
689
  8
DIMENSIONI
 10
-3.056508112094392
 20
0.2404159363315319
 30
0.0
  0
VERTEX
  5
68A
  8
DIMENSIONI
 10
-3.116519174041295
 20
0.1280449923787296
 30
0.0
  0
VERTEX
  5
68B
  8
DIMENSIONI
 10
-3.193676253687312
 20
0.0147522195173726
 30
0.0
  0
VERTEX
  5
68C
  8
DIMENSIONI
 10
-3.287979351032445
 20
-0.0994623822525389
 30
0.0
  0
VERTEX
  5
68D
  8
DIMENSIONI
 10
-3.399428466076692
 20
-0.2145988129310051
 30
0.0
  0
VERTEX
  5
68E
  8
DIMENSIONI
 10
-3.528023598820055
 20
-0.3306570725180258
 30
0.0
  0
VERTEX
  5
68F
  8
DIMENSIONI
 10
-3.354904129793507
 20
-0.4106718217805624
 30
0.0
  0
VERTEX
  5
690
  8
DIMENSIONI
 10
-3.20427728613569
 20
-0.5061732967068161
 30
0.0
  0
VERTEX
  5
691
  8
DIMENSIONI
 10
-3.076143067846604
 20
-0.6171614972967867
 30
0.0
  0
VERTEX
  5
692
  8
DIMENSIONI
 10
-2.97050147492625
 20
-0.743636423550474
 30
0.0
  0
VERTEX
  5
693
  8
DIMENSIONI
 10
-2.88790560471976
 20
-0.8837544176507688
 30
0.0
  0
VERTEX
  5
694
  8
DIMENSIONI
 10
-2.828908554572267
 20
-1.035671821780562
 30
0.0
  0
VERTEX
  5
695
  8
DIMENSIONI
 10
-2.793510324483772
 20
-1.199388635939854
 30
0.0
  0
VERTEX
  5
696
  8
DIMENSIONI
 10
-2.781710914454274
 20
-1.374904860128645
 30
0.0
  0
VERTEX
  5
697
  8
DIMENSIONI
 10
-2.78687315634218
 20
-1.502532072518025
 30
0.0
  0
VERTEX
  5
698
  8
DIMENSIONI
 10
-2.802359882005896
 20
-1.6258266890372
 30
0.0
  0
VERTEX
  5
699
  8
DIMENSIONI
 10
-2.828171091445424
 20
-1.744788709686167
 30
0.0
  0
VERTEX
  5
69A
  8
DIMENSIONI
 10
-2.864306784660763
 20
-1.859418134464928
 30
0.0
  0
VERTEX
  5
69B
  8
DIMENSIONI
 10
-2.910766961651914
 20
-1.969714963373483
 30
0.0
  0
VERTEX
  5
69C
  8
DIMENSIONI
 10
-2.967551622418876
 20
-2.075679196411831
 30
0.0
  0
VERTEX
  5
69D
  8
DIMENSIONI
 10
-3.034660766961649
 20
-2.177310833579972
 30
0.0
  0
VERTEX
  5
69E
  8
DIMENSIONI
 10
-3.112094395280232
 20
-2.274609874877908
 30
0.0
  0
VERTEX
  5
69F
  8
DIMENSIONI
 10
-3.225801991150439
 20
-2.390760317355784
 30
0.0
  0
VERTEX
  5
6A0
  8
DIMENSIONI
 10
-3.35158554572271
 20
-2.491424034169943
 30
0.0
  0
VERTEX
  5
6A1
  8
DIMENSIONI
 10
-3.489445058997046
 20
-2.576601025320386
 30
0.0
  0
VERTEX
  5
6A2
  8
DIMENSIONI
 10
-3.639380530973447
 20
-2.646291290807111
 30
0.0
  0
VERTEX
  5
6A3
  8
DIMENSIONI
 10
-3.801391961651914
 20
-2.70049483063012
 30
0.0
  0
VERTEX
  5
6A4
  8
DIMENSIONI
 10
-3.975479351032445
 20
-2.739211644789412
 30
0.0
  0
VERTEX
  5
6A5
  8
DIMENSIONI
 10
-4.16164269911504
 20
-2.762441733284987
 30
0.0
  0
VERTEX
  5
6A6
  8
DIMENSIONI
 10
-4.359882005899701
 20
-2.770185096116846
 30
0.0
  0
VERTEX
  5
6A7
  8
DIMENSIONI
 10
-4.545814896755158
 20
-2.763916659538675
 30
0.0
  0
VERTEX
  5
6A8
  8
DIMENSIONI
 10
-4.699483775811204
 20
-2.745111349804161
 30
0.0
  0
VERTEX
  5
6A9
  8
DIMENSIONI
 10
-4.820888643067843
 20
-2.713769166913306
 30
0.0
  0
VERTEX
  5
6AA
  8
DIMENSIONI
 10
-4.91002949852507
 20
-2.669890110866108
 30
0.0
  0
VERTEX
  5
6AB
  8
DIMENSIONI
 10
-4.973912241887902
 20
-2.618820789332185
 30
0.0
  0
VERTEX
  5
6AC
  8
DIMENSIONI
 10
-5.019542772861353
 20
-2.565907809981153
 30
0.0
  0
VERTEX
  5
6AD
  8
DIMENSIONI
 10
-5.046921091445424
 20
-2.511151172813011
 30
0.0
  0
VERTEX
  5
6AE
  8
DIMENSIONI
 10
-5.056047197640114
 20
-2.45455087782776
 30
0.0
  0
VERTEX
  5
6AF
  8
DIMENSIONI
 10
-5.051714601769908
 20
-2.413068576942805
 30
0.0
  0
VERTEX
  5
6B0
  8
DIMENSIONI
 10
-5.038716814159288
 20
-2.374167397001801
 30
0.0
  0
VERTEX
  5
6B1
  8
DIMENSIONI
 10
-5.017053834808256
 20
-2.337847338004751
 30
0.0
  0
VERTEX
  5
6B2
  8
DIMENSIONI
 10
-4.98672566371681
 20
-2.304108399951654
 30
0.0
  0
VERTEX
  5
6B3
  8
DIMENSIONI
 10
-4.950313421828905
 20
-2.275716069568173
 30
0.0
  0
VERTEX
  5
6B4
  8
DIMENSIONI
 10
-4.910398230088491
 20
-2.255435833579972
 30
0.0
  0
VERTEX
  5
6B5
  8
DIMENSIONI
 10
-4.86698008849557
 20
-2.243267691987052
 30
0.0
  0
VERTEX
  5
6B6
  8
DIMENSIONI
 10
-4.820058997050143
 20
-2.239211644789412
 30
0.0
  0
VERTEX
  5
6B7
  8
DIMENSIONI
 10
-4.745575221238934
 20
-2.245111349804161
 30
0.0
  0
VERTEX
  5
6B8
  8
DIMENSIONI
 10
-4.669616519174038
 20
-2.262810464848409
 30
0.0
  0
VERTEX
  5
6B9
  8
DIMENSIONI
 10
-4.587758112094392
 20
-2.297102500246639
 30
0.0
  0
VERTEX
  5
6BA
  8
DIMENSIONI
 10
-4.44247787610619
 20
-2.370480081367583
 30
0.0
  0
VERTEX
  5
6BB
  8
DIMENSIONI
 10
-4.292772861356928
 20
-2.444595125615371
 30
0.0
  0
VERTEX
  5
6BC
  8
DIMENSIONI
 10
-4.197640117994096
 20
-2.481099550394132
 30
0.0
  0
VERTEX
  5
6BD
  8
DIMENSIONI
 10
-4.084808259587017
 20
-2.505435833579972
 30
0.0
  0
VERTEX
  5
6BE
  8
DIMENSIONI
 10
-3.964601769911501
 20
-2.513547927975253
 30
0.0
  0
VERTEX
  5
6BF
  8
DIMENSIONI
 10
-3.819044985250733
 20
-2.49898303122009
 30
0.0
  0
VERTEX
  5
6C0
  8
DIMENSIONI
 10
-3.749930862831855
 20
-2.480776910276138
 30
0.0
  0
VERTEX
  5
6C1
  8
DIMENSIONI
 10
-3.683259587020645
 20
-2.455288340954604
 30
0.0
  0
VERTEX
  5
6C2
  8
DIMENSIONI
 10
-3.619031157817106
 20
-2.422517323255489
 30
0.0
  0
VERTEX
  5
6C3
  8
DIMENSIONI
 10
-3.557245575221235
 20
-2.382463857178792
 30
0.0
  0
VERTEX
  5
6C4
  8
DIMENSIONI
 10
-3.441002949852503
 20
-2.280509579892657
 30
0.0
  0
VERTEX
  5
6C5
  8
DIMENSIONI
 10
-3.343565634218286
 20
-2.158643798181743
 30
0.0
  0
VERTEX
  5
6C6
  8
DIMENSIONI
 10
-3.273967551622416
 20
-2.026084801131595
 30
0.0
  0
VERTEX
  5
6C7
  8
DIMENSIONI
 10
-3.232208702064894
 20
-1.882832588742214
 30
0.0
  0
VERTEX
  5
6C8
  8
DIMENSIONI
 10
-3.218289085545719
 20
-1.728887161013601
 30
0.0
  0
VERTEX
  5
6C9
  8
DIMENSIONI
 10
-3.224741887905601
 20
-1.613105450099146
 30
0.0
  0
VERTEX
  5
6CA
  8
DIMENSIONI
 10
-3.244100294985247
 20
-1.498798665438379
 30
0.0
  0
VERTEX
  5
6CB
  8
DIMENSIONI
 10
-3.276364306784657
 20
-1.3859668070313
 30
0.0
  0
VERTEX
  5
6CC
  8
DIMENSIONI
 10
-3.321533923303831
 20
-1.274609874877908
 30
0.0
  0
VERTEX
  5
6CD
  8
DIMENSIONI
 10
-3.40191740412979
 20
-1.129329638889707
 30
0.0
  0
VERTEX
  5
6CE
  8
DIMENSIONI
 10
-3.444874631268433
 20
-1.071623149214191
 30
0.0
  0
VERTEX
  5
6CF
  8
DIMENSIONI
 10
-3.489675516224185
 20
-1.023872411751064
 30
0.0
  0
VERTEX
  5
6D0
  8
DIMENSIONI
 10
-3.558997050147489
 20
-0.9662581049664032
 30
0.0
  0
VERTEX
  5
6D1
  8
DIMENSIONI
 10
-3.640117994100291
 20
-0.9114092849074061
 30
0.0
  0
VERTEX
  5
6D2
  8
DIMENSIONI
 10
-3.733038348082592
 20
-0.8593259515740728
 30
0.0
  0
VERTEX
  5
6D3
  8
DIMENSIONI
 10
-3.837758112094392
 20
-0.8100081049664032
 30
0.0
  0
VERTEX
  5
6D4
  8
DIMENSIONI
 10
-3.948930678466072
 20
-0.7680648896271702
 30
0.0
  0
VERTEX
  5
6D5
  8
DIMENSIONI
 10
-4.06120943952802
 20
-0.7381054500991466
 30
0.0
  0
VERTEX
  5
6D6
  8
DIMENSIONI
 10
-4.174594395280232
 20
-0.7201297863823324
 30
0.0
  0
VERTEX
  5
6D7
  8
DIMENSIONI
 10
-4.28908554572271
 20
-0.7141378984767277
 30
0.0
  0
VERTEX
  5
6D8
  8
DIMENSIONI
 10
-4.383480825958698
 20
-0.7141378984767277
 30
0.0
  0
VERTEX
  5
6D9
  8
DIMENSIONI
 10
-4.383480825958698
 20
-0.6256423232554886
 30
0.0
  0
VERTEX
  5
6DA
  8
DIMENSIONI
 10
-4.266869469026545
 20
-0.6040715267953116
 30
0.0
  0
VERTEX
  5
6DB
  8
DIMENSIONI
 10
-4.150073746312681
 20
-0.568857662488527
 30
0.0
  0
VERTEX
  5
6DC
  8
DIMENSIONI
 10
-4.033093657817105
 20
-0.5200007303351346
 30
0.0
  0
VERTEX
  5
6DD
  8
DIMENSIONI
 10
-3.915929203539819
 20
-0.4575007303351346
 30
0.0
  0
VERTEX
  5
6DE
  8
DIMENSIONI
 10
-3.806692477876103
 20
-0.3846762465593234
 30
0.0
  0
VERTEX
  5
6DF
  8
DIMENSIONI
 10
-3.713495575221235
 20
-0.3048458630784974
 30
0.0
  0
VERTEX
  5
6E0
  8
DIMENSIONI
 10
-3.636338495575218
 20
-0.2180095798926568
 30
0.0
  0
VERTEX
  5
6E1
  8
DIMENSIONI
 10
-3.575221238938049
 20
-0.1241673970018016
 30
0.0
  0
VERTEX
  5
6E2
  8
DIMENSIONI
 10
-3.528761061946899
 20
-0.0244255090961968
 30
0.0
  0
VERTEX
  5
6E3
  8
DIMENSIONI
 10
-3.495575221238935
 20
0.0801098891338918
 30
0.0
  0
VERTEX
  5
6E4
  8
DIMENSIONI
 10
-3.475663716814156
 20
0.1894387976884641
 30
0.0
  0
VERTEX
  5
6E5
  8
DIMENSIONI
 10
-3.469026548672563
 20
0.3035612165675201
 30
0.0
  0
VERTEX
  5
6E6
  8
DIMENSIONI
 10
-3.480918141592917
 20
0.4481961723197326
 30
0.0
  0
VERTEX
  5
6E7
  8
DIMENSIONI
 10
-3.516592920353979
 20
0.5782662313167828
 30
0.0
  0
VERTEX
  5
6E8
  8
DIMENSIONI
 10
-3.576050884955749
 20
0.6937713935586707
 30
0.0
  0
VERTEX
  5
6E9
  8
DIMENSIONI
 10
-3.659292035398226
 20
0.7947116590453964
 30
0.0
  0
VERTEX
  5
6EA
  8
DIMENSIONI
 10
-3.760232300884952
 20
0.8766622490158977
 30
0.0
  0
VERTEX
  5
6EB
  8
DIMENSIONI
 10
-3.872787610619465
 20
0.935198384709113
 30
0.0
  0
VERTEX
  5
6EC
  8
DIMENSIONI
 10
-3.996957964601767
 20
0.9703200661250423
 30
0.0
  0
VERTEX
  5
6ED
  8
DIMENSIONI
 10
-4.132743362831855
 20
0.9820272932636853
 30
0.0
  0
VERTEX
  5
6EE
  8
DIMENSIONI
 10
-4.244699483775808
 20
0.9743761133226824
 30
0.0
  0
VERTEX
  5
6EF
  8
DIMENSIONI
 10
-4.351954277286131
 20
0.9514225734996736
 30
0.0
  0
VERTEX
  5
6F0
  8
DIMENSIONI
 10
-4.454507743362829
 20
0.9131666737946589
 30
0.0
  0
VERTEX
  5
6F1
  8
DIMENSIONI
 10
-4.552359882005895
 20
0.8596084142076382
 30
0.0
  0
VERTEX
  5
6F2
  8
DIMENSIONI
 10
-4.645510693215336
 20
0.7907477947386117
 30
0.0
  0
VERTEX
  5
6F3
  8
DIMENSIONI
 10
-4.733960176991147
 20
0.7065848153875792
 30
0.0
  0
VERTEX
  5
6F4
  8
DIMENSIONI
 10
-4.81770833333333
 20
0.6071194761545409
 30
0.0
  0
VERTEX
  5
6F5
  8
DIMENSIONI
 10
-4.896755162241885
 20
0.4923517770394965
 30
0.0
  0
SEQEND
  5
874
  8
DIMENSIONI
  0
POLYLINE
  5
C3
  8
DIMENSIONI
 66
     1
 10
0.0
 20
0.0
 30
0.0
 70
     1
  0
VERTEX
  5
6F6
  8
DIMENSIONI
 10
0.427728613569325
 20
1.383207234266635
 30
0.0
  0
VERTEX
  5
6F7
  8
DIMENSIONI
 10
0.427728613569325
 20
1.274062691493774
 30
0.0
  0
VERTEX
  5
6F8
  8
DIMENSIONI
 10
0.2419800884955789
 20
1.250002956980499
 30
0.0
  0
VERTEX
  5
6F9
  8
DIMENSIONI
 10
0.0741150442477913
 20
1.216171836036546
 30
0.0
  0
VERTEX
  5
6FA
  8
DIMENSIONI
 10
-0.0758665191740376
 20
1.172569328661915
 30
0.0
  0
VERTEX
  5
6FB
  8
DIMENSIONI
 10
-0.2079646017699079
 20
1.119195434856606
 30
0.0
  0
VERTEX
  5
6FC
  8
DIMENSIONI
 10
-0.3307522123893769
 20
1.053284667894954
 30
0.0
  0
VERTEX
  5
6FD
  8
DIMENSIONI
 10
-0.4528023598820022
 20
0.9720715410512959
 30
0.0
  0
VERTEX
  5
6FE
  8
DIMENSIONI
 10
-0.5741150442477838
 20
0.8755560543256322
 30
0.0
  0
VERTEX
  5
6FF
  8
DIMENSIONI
 10
-0.694690265486722
 20
0.7637382077179624
 30
0.0
  0
VERTEX
  5
700
  8
DIMENSIONI
 10
-0.8097345132743325
 20
0.6408584142076381
 30
0.0
  0
VERTEX
  5
701
  8
DIMENSIONI
 10
-0.9144542772861319
 20
0.5111570867740098
 30
0.0
  0
VERTEX
  5
702
  8
DIMENSIONI
 10
-1.00884955752212
 20
0.3746342254170777
 30
0.0
  0
VERTEX
  5
703
  8
DIMENSIONI
 10
-1.092920353982297
 20
0.2312898301368418
 30
0.0
  0
VERTEX
  5
704
  8
DIMENSIONI
 10
-1.168602507374628
 20
0.0776209510807945
 30
0.0
  0
VERTEX
  5
705
  8
DIMENSIONI
 10
-1.237831858407076
 20
-0.0898753616035713
 30
0.0
  0
VERTEX
  5
706
  8
DIMENSIONI
 10
-1.300608407079642
 20
-0.2711991079162557
 30
0.0
  0
VERTEX
  5
707
  8
DIMENSIONI
 10
-1.356932153392327
 20
-0.4663502878572587
 30
0.0
  0
VERTEX
  5
708
  8
DIMENSIONI
 10
-1.250691371681412
 20
-0.3979044913970817
 30
0.0
  0
VERTEX
  5
709
  8
DIMENSIONI
 10
-1.144358407079642
 20
-0.3385848011315949
 30
0.0
  0
VERTEX
  5
70A
  8
DIMENSIONI
 10
-1.037933259587017
 20
-0.2883912170607984
 30
0.0
  0
VERTEX
  5
70B
  8
DIMENSIONI
 10
-0.9314159292035362
 20
-0.2473237391846921
 30
0.0
  0
VERTEX
  5
70C
  8
DIMENSIONI
 10
-0.8248064159291999
 20
-0.2153823675032762
 30
0.0
  0
VERTEX
  5
70D
  8
DIMENSIONI
 10
-0.7181047197640082
 20
-0.1925671020165505
 30
0.0
  0
VERTEX
  5
70E
  8
DIMENSIONI
 10
-0.611310840707961
 20
-0.1788779427245152
 30
0.0
  0
VERTEX
  5
70F
  8
DIMENSIONI
 10
-0.5044247787610583
 20
-0.17431488962717
 30
0.0
  0
VERTEX
  5
710
  8
DIMENSIONI
 10
-0.4036227876106159
 20
-0.1794771315150756
 30
0.0
  0
VERTEX
  5
711
  8
DIMENSIONI
 10
-0.3062315634218253
 20
-0.1949638571787924
 30
0.0
  0
VERTEX
  5
712
  8
DIMENSIONI
 10
-0.2122511061946867
 20
-0.2207750666183205
 30
0.0
  0
VERTEX
  5
713
  8
DIMENSIONI
 10
-0.1216814159292
 20
-0.2569107598336597
 30
0.0
  0
VERTEX
  5
714
  8
DIMENSIONI
 10
-0.0345224926253651
 20
-0.3033709368248102
 30
0.0
  0
VERTEX
  5
715
  8
DIMENSIONI
 10
0.0492256637168178
 20
-0.3601555975917719
 30
0.0
  0
VERTEX
  5
716
  8
DIMENSIONI
 10
0.1295630530973489
 20
-0.4272647421345448
 30
0.0
  0
VERTEX
  5
717
  8
DIMENSIONI
 10
0.206489675516228
 20
-0.5046983704531289
 30
0.0
  0
VERTEX
  5
718
  8
DIMENSIONI
 10
0.2770095870206527
 20
-0.5902440931669932
 30
0.0
  0
VERTEX
  5
719
  8
DIMENSIONI
 10
0.3381268436578208
 20
-0.6816895208956066
 30
0.0
  0
VERTEX
  5
71A
  8
DIMENSIONI
 10
0.3898414454277323
 20
-0.7790346536389694
 30
0.0
  0
VERTEX
  5
71B
  8
DIMENSIONI
 10
0.4321533923303872
 20
-0.8822794913970815
 30
0.0
  0
VERTEX
  5
71C
  8
DIMENSIONI
 10
0.4650626843657855
 20
-0.9914240341699427
 30
0.0
  0
VERTEX
  5
71D
  8
DIMENSIONI
 10
0.4885693215339271
 20
-1.106468281957553
 30
0.0
  0
VERTEX
  5
71E
  8
DIMENSIONI
 10
0.502673303834812
 20
-1.227412234759913
 30
0.0
  0
VERTEX
  5
71F
  8
DIMENSIONI
 10
0.5073746312684404
 20
-1.354255892577023
 30
0.0
  0
VERTEX
  5
720
  8
DIMENSIONI
 10
0.5026272123893842
 20
-1.478241880777613
 30
0.0
  0
VERTEX
  5
721
  8
DIMENSIONI
 10
0.4883849557522162
 20
-1.599462382252539
 30
0.0
  0
VERTEX
  5
722
  8
DIMENSIONI
 10
0.4646478613569359
 20
-1.717917397001802
 30
0.0
  0
VERTEX
  5
723
  8
DIMENSIONI
 10
0.4314159292035435
 20
-1.8336069250254
 30
0.0
  0
VERTEX
  5
724
  8
DIMENSIONI
 10
0.3886891592920391
 20
-1.946530966323335
 30
0.0
  0
VERTEX
  5
725
  8
DIMENSIONI
 10
0.3364675516224226
 20
-2.056689520895607
 30
0.0
  0
VERTEX
  5
726
  8
DIMENSIONI
 10
0.274751106194694
 20
-2.164082588742215
 30
0.0
  0
VERTEX
  5
727
  8
DIMENSIONI
 10
0.2035398230088534
 20
-2.268710169863158
 30
0.0
  0
VERTEX
  5
728
  8
DIMENSIONI
 10
0.1084070796460216
 20
-2.386243355703866
 30
0.0
  0
VERTEX
  5
729
  8
DIMENSIONI
 10
0.0058997050147531
 20
-2.488105450099146
 30
0.0
  0
VERTEX
  5
72A
  8
DIMENSIONI
 10
-0.103982300884952
 20
-2.574296453048999
 30
0.0
  0
VERTEX
  5
72B
  8
DIMENSIONI
 10
-0.2212389380530936
 20
-2.644816364553424
 30
0.0
  0
VERTEX
  5
72C
  8
DIMENSIONI
 10
-0.3458702064896717
 20
-2.699665184612421
 30
0.0
  0
VERTEX
  5
72D
  8
DIMENSIONI
 10
-0.4778761061946866
 20
-2.73884291322599
 30
0.0
  0
VERTEX
  5
72E
  8
DIMENSIONI
 10
-0.6172566371681378
 20
-2.762349550394132
 30
0.0
  0
VERTEX
  5
72F
  8
DIMENSIONI
 10
-0.7640117994100257
 20
-2.770185096116846
 30
0.0
  0
VERTEX
  5
730
  8
DIMENSIONI
 10
-0.8645833333333297
 20
-2.765944683137495
 30
0.0
  0
VERTEX
  5
731
  8
DIMENSIONI
 10
-0.9612831858407044
 20
-2.753223444199441
 30
0.0
  0
VERTEX
  5
732
  8
DIMENSIONI
 10
-1.05411135693215
 20
-2.732021379302687
 30
0.0
  0
VERTEX
  5
733
  8
DIMENSIONI
 10
-1.143067846607666
 20
-2.702338488447229
 30
0.0
  0
VERTEX
  5
734
  8
DIMENSIONI
 10
-1.228152654867253
 20
-2.66417477163307
 30
0.0
  0
VERTEX
  5
735
  8
DIMENSIONI
 10
-1.309365781710911
 20
-2.617530228860208
 30
0.0
  0
VERTEX
  5
736
  8
DIMENSIONI
 10
-1.386707227138639
 20
-2.562404860128646
 30
0.0
  0
VERTEX
  5
737
  8
DIMENSIONI
 10
-1.460176991150439
 20
-2.498798665438379
 30
0.0
  0
VERTEX
  5
738
  8
DIMENSIONI
 10
-1.591537610619465
 20
-2.361907072518026
 30
0.0
  0
VERTEX
  5
739
  8
DIMENSIONI
 10
-1.705383480825955
 20
-2.215244093166993
 30
0.0
  0
VERTEX
  5
73A
  8
DIMENSIONI
 10
-1.801714601769908
 20
-2.058809727385282
 30
0.0
  0
VERTEX
  5
73B
  8
DIMENSIONI
 10
-1.880530973451324
 20
-1.892603975172893
 30
0.0
  0
VERTEX
  5
73C
  8
DIMENSIONI
 10
-1.941832595870203
 20
-1.716626836529825
 30
0.0
  0
VERTEX
  5
73D
  8
DIMENSIONI
 10
-1.985619469026545
 20
-1.530878311456079
 30
0.0
  0
VERTEX
  5
73E
  8
DIMENSIONI
 10
-2.01189159292035
 20
-1.335358399951654
 30
0.0
  0
VERTEX
  5
73F
  8
DIMENSIONI
 10
-2.020648967551619
 20
-1.130067102016551
 30
0.0
  0
VERTEX
  5
740
  8
DIMENSIONI
 10
-2.007190265486722
 20
-0.8649491079162557
 30
0.0
  0
VERTEX
  5
741
  8
DIMENSIONI
 10
-1.966814159292032
 20
-0.6064682819575535
 30
0.0
  0
VERTEX
  5
742
  8
DIMENSIONI
 10
-1.899520648967548
 20
-0.3546246241404445
 30
0.0
  0
VERTEX
  5
743
  8
DIMENSIONI
 10
-1.805309734513271
 20
-0.1094181344649283
 30
0.0
  0
VERTEX
  5
744
  8
DIMENSIONI
 10
-1.686117256637164
 20
0.1256482372164878
 30
0.0
  0
VERTEX
  5
745
  8
DIMENSIONI
 10
-1.543879056047194
 20
0.347071541051296
 30
0.0
  0
VERTEX
  5
746
  8
DIMENSIONI
 10
-1.378595132743359
 20
0.5548517770394965
 30
0.0
  0
VERTEX
  5
747
  8
DIMENSIONI
 10
-1.19026548672566
 20
0.7489889451810896
 30
0.0
  0
VERTEX
  5
748
  8
DIMENSIONI
 10
-0.9925331858407043
 20
0.9210022195173726
 30
0.0
  0
VERTEX
  5
749
  8
DIMENSIONI
 10
-0.7990412979350996
 20
1.062410774089644
 30
0.0
  0
VERTEX
  5
74A
  8
DIMENSIONI
 10
-0.6097898230088459
 20
1.173214608897903
 30
0.0
  0
VERTEX
  5
74B
  8
DIMENSIONI
 10
-0.4247787610619431
 20
1.253413723942151
 30
0.0
  0
VERTEX
  5
74C
  8
DIMENSIONI
 10
-0.2450221238938017
 20
1.310198384709113
 30
0.0
  0
VERTEX
  5
74D
  8
DIMENSIONI
 10
-0.0715339233038312
 20
1.350758856685514
 30
0.0
  0
VERTEX
  5
74E
  8
DIMENSIONI
 10
0.0956858407079682
 20
1.375095139871355
 30
0.0
  0
VERTEX
  5
74F
  8
DIMENSIONI
 10
0.2566371681415964
 20
1.383207234266635
 30
0.0
  0
SEQEND
  5
875
  8
DIMENSIONI
  0
POLYLINE
  5
C4
  8
DIMENSIONI
 66
     1
 10
0.0
 20
0.0
 30
0.0
 70
     1
  0
VERTEX
  5
750
  8
DIMENSIONI
 10
-1.407079646017695
 20
-0.6816895208956066
 30
0.0
  0
VERTEX
  5
751
  8
DIMENSIONI
 10
-1.446902654867253
 20
-1.041571526795312
 30
0.0
  0
VERTEX
  5
752
  8
DIMENSIONI
 10
-1.460176991150439
 20
-1.324757367503276
 30
0.0
  0
VERTEX
  5
753
  8
DIMENSIONI
 10
-1.453632005899701
 20
-1.469392323255489
 30
0.0
  0
VERTEX
  5
754
  8
DIMENSIONI
 10
-1.433997050147489
 20
-1.620111349804161
 30
0.0
  0
VERTEX
  5
755
  8
DIMENSIONI
 10
-1.401272123893802
 20
-1.776914447149294
 30
0.0
  0
VERTEX
  5
756
  8
DIMENSIONI
 10
-1.355457227138639
 20
-1.939801615290887
 30
0.0
  0
VERTEX
  5
757
  8
DIMENSIONI
 10
-1.296736725663713
 20
-2.097157809981153
 30
0.0
  0
VERTEX
  5
758
  8
DIMENSIONI
 10
-1.225294985250734
 20
-2.237367986972303
 30
0.0
  0
VERTEX
  5
759
  8
DIMENSIONI
 10
-1.141132005899701
 20
-2.360432146264339
 30
0.0
  0
VERTEX
  5
75A
  8
DIMENSIONI
 10
-1.044247787610616
 20
-2.466350287857259
 30
0.0
  0
VERTEX
  5
75B
  8
DIMENSIONI
 10
-0.9649705014749226
 20
-2.527006630040149
 30
0.0
  0
VERTEX
  5
75C
  8
DIMENSIONI
 10
-0.8775811209439491
 20
-2.570332588742215
 30
0.0
  0
VERTEX
  5
75D
  8
DIMENSIONI
 10
-0.7820796460176954
 20
-2.596328163963453
 30
0.0
  0
VERTEX
  5
75E
  8
DIMENSIONI
 10
-0.6784660766961614
 20
-2.604993355703866
 30
0.0
  0
VERTEX
  5
75F
  8
DIMENSIONI
 10
-0.6151594764011761
 20
-2.601213857178792
 30
0.0
  0
VERTEX
  5
760
  8
DIMENSIONI
 10
-0.5535582595870169
 20
-2.589875361603571
 30
0.0
  0
VERTEX
  5
761
  8
DIMENSIONI
 10
-0.4936624262536836
 20
-2.570977868978202
 30
0.0
  0
VERTEX
  5
762
  8
DIMENSIONI
 10
-0.4354719764011761
 20
-2.544521379302686
 30
0.0
  0
VERTEX
  5
763
  8
DIMENSIONI
 10
-0.3242072271386392
 20
-2.468931408801211
 30
0.0
  0
VERTEX
  5
764
  8
DIMENSIONI
 10
-0.2197640117994062
 20
-2.363105450099146
 30
0.0
  0
VERTEX
  5
765
  8
DIMENSIONI
 10
-0.172405051622415
 20
-2.299407072518026
 30
0.0
  0
VERTEX
  5
766
  8
DIMENSIONI
 10
-0.1313606194690227
 20
-2.229255892577022
 30
0.0
  0
VERTEX
  5
767
  8
DIMENSIONI
 10
-0.0966307153392292
 20
-2.152651910276138
 30
0.0
  0
VERTEX
  5
768
  8
DIMENSIONI
 10
-0.0682153392330346
 20
-2.069595125615371
 30
0.0
  0
VERTEX
  5
769
  8
DIMENSIONI
 10
-0.0303281710914417
 20
-1.884123149214191
 30
0.0
  0
VERTEX
  5
76A
  8
DIMENSIONI
 10
-0.017699115044244
 20
-1.672839963373483
 30
0.0
  0
VERTEX
  5
76B
  8
DIMENSIONI
 10
-0.0302359882005862
 20
-1.429108399951654
 30
0.0
  0
VERTEX
  5
76C
  8
DIMENSIONI
 10
-0.0678466076696127
 20
-1.202338488447229
 30
0.0
  0
VERTEX
  5
76D
  8
DIMENSIONI
 10
-0.1305309734513236
 20
-0.9925302288602085
 30
0.0
  0
VERTEX
  5
76E
  8
DIMENSIONI
 10
-0.2182890855457191
 20
-0.799683621190592
 30
0.0
  0
VERTEX
  5
76F
  8
DIMENSIONI
 10
-0.2710637905604684
 20
-0.7132621610136007
 30
0.0
  0
VERTEX
  5
770
  8
DIMENSIONI
 10
-0.3290929203539786
 20
-0.6383635621935417
 30
0.0
  0
VERTEX
  5
771
  8
DIMENSIONI
 10
-0.39237647492625
 20
-0.574987824730415
 30
0.0
  0
VERTEX
  5
772
  8
DIMENSIONI
 10
-0.4609144542772824
 20
-0.5231349486242203
 30
0.0
  0
VERTEX
  5
773
  8
DIMENSIONI
 10
-0.5347068584070759
 20
-0.4828049338749577
 30
0.0
  0
VERTEX
  5
774
  8
DIMENSIONI
 10
-0.6137536873156304
 20
-0.4539977804826274
 30
0.0
  0
VERTEX
  5
775
  8
DIMENSIONI
 10
-0.6980549410029461
 20
-0.4367134884472292
 30
0.0
  0
VERTEX
  5
776
  8
DIMENSIONI
 10
-0.7876106194690229
 20
-0.4309520577687631
 30
0.0
  0
VERTEX
  5
777
  8
DIMENSIONI
 10
-0.903761061946899
 20
-0.4427514677982616
 30
0.0
  0
VERTEX
  5
778
  8
DIMENSIONI
 10
-1.028023598820055
 20
-0.478149697886757
 30
0.0
  0
VERTEX
  5
779
  8
DIMENSIONI
 10
-1.186946902654864
 20
-0.5526334736979664
 30
0.0
  0
SEQEND
  5
876
  8
DIMENSIONI
  0
POLYLINE
  5
C5
  8
DIMENSIONI
 66
     1
 10
0.0
 20
0.0
 30
0.0
 70
     1
  0
VERTEX
  5
77A
  8
DIMENSIONI
 10
1.495575221238941
 20
-2.127117249509176
 30
0.0
  0
VERTEX
  5
77B
  8
DIMENSIONI
 10
1.562131268436582
 20
-2.133109137414781
 30
0.0
  0
VERTEX
  5
77C
  8
DIMENSIONI
 10
1.623156342182894
 20
-2.151084801131595
 30
0.0
  0
VERTEX
  5
77D
  8
DIMENSIONI
 10
1.678650442477879
 20
-2.181044240659618
 30
0.0
  0
VERTEX
  5
77E
  8
DIMENSIONI
 10
1.728613569321537
 20
-2.222987455998851
 30
0.0
  0
VERTEX
  5
77F
  8
DIMENSIONI
 10
1.769911504424782
 20
-2.273411497296787
 30
0.0
  0
VERTEX
  5
780
  8
DIMENSIONI
 10
1.799410029498528
 20
-2.328813414700917
 30
0.0
  0
VERTEX
  5
781
  8
DIMENSIONI
 10
1.817109144542776
 20
-2.389193208211241
 30
0.0
  0
VERTEX
  5
782
  8
DIMENSIONI
 10
1.823008849557526
 20
-2.45455087782776
 30
0.0
  0
VERTEX
  5
783
  8
DIMENSIONI
 10
1.817016961651921
 20
-2.519908547444279
 30
0.0
  0
VERTEX
  5
784
  8
DIMENSIONI
 10
1.799041297935107
 20
-2.580288340954604
 30
0.0
  0
VERTEX
  5
785
  8
DIMENSIONI
 10
1.769081858407083
 20
-2.635690258358733
 30
0.0
  0
VERTEX
  5
786
  8
DIMENSIONI
 10
1.72713864306785
 20
-2.686114299656669
 30
0.0
  0
VERTEX
  5
787
  8
DIMENSIONI
 10
1.676714601769915
 20
-2.728057514995902
 30
0.0
  0
VERTEX
  5
788
  8
DIMENSIONI
 10
1.621312684365785
 20
-2.758016954523925
 30
0.0
  0
VERTEX
  5
789
  8
DIMENSIONI
 10
1.560932890855461
 20
-2.775992618240739
 30
0.0
  0
VERTEX
  5
78A
  8
DIMENSIONI
 10
1.495575221238941
 20
-2.781984506146344
 30
0.0
  0
VERTEX
  5
78B
  8
DIMENSIONI
 10
1.430217551622422
 20
-2.775992618240739
 30
0.0
  0
VERTEX
  5
78C
  8
DIMENSIONI
 10
1.369837758112098
 20
-2.758016954523925
 30
0.0
  0
VERTEX
  5
78D
  8
DIMENSIONI
 10
1.314435840707968
 20
-2.728057514995902
 30
0.0
  0
VERTEX
  5
78E
  8
DIMENSIONI
 10
1.264011799410033
 20
-2.686114299656669
 30
0.0
  0
VERTEX
  5
78F
  8
DIMENSIONI
 10
1.2220685840708
 20
-2.635690258358733
 30
0.0
  0
VERTEX
  5
790
  8
DIMENSIONI
 10
1.192109144542776
 20
-2.580288340954604
 30
0.0
  0
VERTEX
  5
791
  8
DIMENSIONI
 10
1.174133480825962
 20
-2.519908547444279
 30
0.0
  0
VERTEX
  5
792
  8
DIMENSIONI
 10
1.168141592920357
 20
-2.45455087782776
 30
0.0
  0
VERTEX
  5
793
  8
DIMENSIONI
 10
1.174133480825962
 20
-2.38799483063012
 30
0.0
  0
VERTEX
  5
794
  8
DIMENSIONI
 10
1.192109144542776
 20
-2.326969756883807
 30
0.0
  0
VERTEX
  5
795
  8
DIMENSIONI
 10
1.2220685840708
 20
-2.271475656588822
 30
0.0
  0
VERTEX
  5
796
  8
DIMENSIONI
 10
1.264011799410033
 20
-2.221512529745164
 30
0.0
  0
VERTEX
  5
797
  8
DIMENSIONI
 10
1.314435840707968
 20
-2.180214594641919
 30
0.0
  0
VERTEX
  5
798
  8
DIMENSIONI
 10
1.369837758112098
 20
-2.150716069568173
 30
0.0
  0
VERTEX
  5
799
  8
DIMENSIONI
 10
1.430217551622422
 20
-2.133016954523925
 30
0.0
  0
SEQEND
  5
877
  8
DIMENSIONI
  0
POLYLINE
  5
C6
  8
DIMENSIONI
 66
     1
 10
0.0
 20
0.0
 30
0.0
 70
     1
  0
VERTEX
  5
79A
  8
DIMENSIONI
 10
2.469026548672569
 20
-0.7229874559988516
 30
0.0
  0
VERTEX
  5
79B
  8
DIMENSIONI
 10
2.481932153392334
 20
-0.3926961580637483
 30
0.0
  0
VERTEX
  5
79C
  8
DIMENSIONI
 10
2.520648967551625
 20
-0.086188045969353
 30
0.0
  0
VERTEX
  5
79D
  8
DIMENSIONI
 10
2.549686578171094
 20
0.0581473153875792
 30
0.0
  0
VERTEX
  5
79E
  8
DIMENSIONI
 10
2.585176991150446
 20
0.1965368802843344
 30
0.0
  0
VERTEX
  5
79F
  8
DIMENSIONI
 10
2.627120206489678
 20
0.3289806487209126
 30
0.0
  0
VERTEX
  5
7A0
  8
DIMENSIONI
 10
2.675516224188794
 20
0.4554786206973138
 30
0.0
  0
VERTEX
  5
7A1
  8
DIMENSIONI
 10
2.787241887905608
 20
0.686765493853656
 30
0.0
  0
VERTEX
  5
7A2
  8
DIMENSIONI
 10
2.849465339233042
 20
0.7905864746796146
 30
0.0
  0
VERTEX
  5
7A3
  8
DIMENSIONI
 10
2.915929203539826
 20
0.8865258183374316
 30
0.0
  0
VERTEX
  5
7A4
  8
DIMENSIONI
 10
2.986633480825962
 20
0.9745835248271072
 30
0.0
  0
VERTEX
  5
7A5
  8
DIMENSIONI
 10
3.061578171091448
 20
1.054759594148641
 30
0.0
  0
VERTEX
  5
7A6
  8
DIMENSIONI
 10
3.140763274336286
 20
1.127054026302034
 30
0.0
  0
VERTEX
  5
7A7
  8
DIMENSIONI
 10
3.224188790560475
 20
1.191466821287284
 30
0.0
  0
VERTEX
  5
7A8
  8
DIMENSIONI
 10
3.358038348082599
 20
1.27535325196575
 30
0.0
  0
VERTEX
  5
7A9
  8
DIMENSIONI
 10
3.494100294985254
 20
1.335272131021797
 30
0.0
  0
VERTEX
  5
7AA
  8
DIMENSIONI
 10
3.63237463126844
 20
1.371223458455426
 30
0.0
  0
VERTEX
  5
7AB
  8
DIMENSIONI
 10
3.772861356932157
 20
1.383207234266635
 30
0.0
  0
VERTEX
  5
7AC
  8
DIMENSIONI
 10
3.88643067846608
 20
1.375878694443626
 30
0.0
  0
VERTEX
  5
7AD
  8
DIMENSIONI
 10
3.997050147492628
 20
1.3538930749746
 30
0.0
  0
VERTEX
  5
7AE
  8
DIMENSIONI
 10
4.104719764011802
 20
1.317250375859556
 30
0.0
  0
VERTEX
  5
7AF
  8
DIMENSIONI
 10
4.209439528023601
 20
1.265950597098493
 30
0.0
  0
VERTEX
  5
7B0
  8
DIMENSIONI
 10
4.311209439528026
 20
1.199993738691414
 30
0.0
  0
VERTEX
  5
7B1
  8
DIMENSIONI
 10
4.410029498525076
 20
1.119379800638316
 30
0.0
  0
VERTEX
  5
7B2
  8
DIMENSIONI
 10
4.505899705014752
 20
1.024108782939201
 30
0.0
  0
VERTEX
  5
7B3
  8
DIMENSIONI
 10
4.598820058997052
 20
0.9141806855940686
 30
0.0
  0
VERTEX
  5
7B4
  8
DIMENSIONI
 10
4.705982669616522
 20
0.7624476472459861
 30
0.0
  0
VERTEX
  5
7B5
  8
DIMENSIONI
 10
4.798856932153395
 20
0.5978090041781395
 30
0.0
  0
VERTEX
  5
7B6
  8
DIMENSIONI
 10
4.877442846607672
 20
0.4202647563905289
 30
0.0
  0
VERTEX
  5
7B7
  8
DIMENSIONI
 10
4.941740412979353
 20
0.2298149038831543
 30
0.0
  0
VERTEX
  5
7B8
  8
DIMENSIONI
 10
4.991749631268439
 20
0.0264594466560157
 30
0.0
  0
VERTEX
  5
7B9
  8
DIMENSIONI
 10
5.027470501474928
 20
-0.189801615290887
 30
0.0
  0
VERTEX
  5
7BA
  8
DIMENSIONI
 10
5.048903023598823
 20
-0.4189682819575536
 30
0.0
  0
VERTEX
  5
7BB
  8
DIMENSIONI
 10
5.056047197640121
 20
-0.6610405533439843
 30
0.0
  0
VERTEX
  5
7BC
  8
DIMENSIONI
 10
5.043510324483779
 20
-0.996033178712716
 30
0.0
  0
VERTEX
  5
7BD
  8
DIMENSIONI
 10
5.005899705014752
 20
-1.304845863078498
 30
0.0
  0
VERTEX
  5
7BE
  8
DIMENSIONI
 10
4.977691740412983
 20
-1.449434727385282
 30
0.0
  0
VERTEX
  5
7BF
  8
DIMENSIONI
 10
4.943215339233041
 20
-1.58747860644133
 30
0.0
  0
VERTEX
  5
7C0
  8
DIMENSIONI
 10
4.902470501474929
 20
-1.718977500246639
 30
0.0
  0
VERTEX
  5
7C1
  8
DIMENSIONI
 10
4.855457227138646
 20
-1.843931408801212
 30
0.0
  0
VERTEX
  5
7C2
  8
DIMENSIONI
 10
4.74824852507375
 20
-2.070609137414781
 30
0.0
  0
VERTEX
  5
7C3
  8
DIMENSIONI
 10
4.627212389380535
 20
-2.263916659538674
 30
0.0
  0
VERTEX
  5
7C4
  8
DIMENSIONI
 10
4.561509033923308
 20
-2.348056593166993
 30
0.0
  0
VERTEX
  5
7C5
  8
DIMENSIONI
 10
4.492348820059
 20
-2.423853975172893
 30
0.0
  0
VERTEX
  5
7C6
  8
DIMENSIONI
 10
4.419731747787614
 20
-2.491308805556374
 30
0.0
  0
VERTEX
  5
7C7
  8
DIMENSIONI
 10
4.343657817109147
 20
-2.550421084317436
 30
0.0
  0
VERTEX
  5
7C8
  8
DIMENSIONI
 10
4.189435840707967
 20
-2.646567839479677
 30
0.0
  0
VERTEX
  5
7C9
  8
DIMENSIONI
 10
4.037979351032451
 20
-2.715244093166993
 30
0.0
  0
VERTEX
  5
7CA
  8
DIMENSIONI
 10
3.889288348082599
 20
-2.756449845379382
 30
0.0
  0
VERTEX
  5
7CB
  8
DIMENSIONI
 10
3.74336283185841
 20
-2.770185096116846
 30
0.0
  0
VERTEX
  5
7CC
  8
DIMENSIONI
 10
3.603290929203542
 20
-2.759630155113896
 30
0.0
  0
VERTEX
  5
7CD
  8
DIMENSIONI
 10
3.46921091445428
 20
-2.727965332105046
 30
0.0
  0
VERTEX
  5
7CE
  8
DIMENSIONI
 10
3.341122787610622
 20
-2.675190627090297
 30
0.0
  0
VERTEX
  5
7CF
  8
DIMENSIONI
 10
3.21902654867257
 20
-2.601306040069648
 30
0.0
  0
VERTEX
  5
7D0
  8
DIMENSIONI
 10
3.102922197640121
 20
-2.506311571043099
 30
0.0
  0
VERTEX
  5
7D1
  8
DIMENSIONI
 10
2.992809734513277
 20
-2.390207220010651
 30
0.0
  0
VERTEX
  5
7D2
  8
DIMENSIONI
 10
2.888689159292038
 20
-2.252992986972303
 30
0.0
  0
VERTEX
  5
7D3
  8
DIMENSIONI
 10
2.790560471976404
 20
-2.094668871928055
 30
0.0
  0
VERTEX
  5
7D4
  8
DIMENSIONI
 10
2.715200958702067
 20
-1.948697264258439
 30
0.0
  0
VERTEX
  5
7D5
  8
DIMENSIONI
 10
2.649889380530976
 20
-1.795443208211241
 30
0.0
  0
VERTEX
  5
7D6
  8
DIMENSIONI
 10
2.59462573746313
 20
-1.634906703786462
 30
0.0
  0
VERTEX
  5
7D7
  8
DIMENSIONI
 10
2.549410029498528
 20
-1.467087750984102
 30
0.0
  0
VERTEX
  5
7D8
  8
DIMENSIONI
 10
2.51424225663717
 20
-1.291986349804161
 30
0.0
  0
VERTEX
  5
7D9
  8
DIMENSIONI
 10
2.489122418879059
 20
-1.109602500246639
 30
0.0
  0
VERTEX
  5
7DA
  8
DIMENSIONI
 10
2.474050516224191
 20
-0.9199362023115358
 30
0.0
  0
SEQEND
  5
878
  8
DIMENSIONI
  0
POLYLINE
  5
C7
  8
DIMENSIONI
 66
     1
 10
0.0
 20
0.0
 30
0.0
 70
     1
  0
VERTEX
  5
7DB
  8
DIMENSIONI
 10
3.047197640117997
 20
-0.7967337686832172
 30
0.0
  0
VERTEX
  5
7DC
  8
DIMENSIONI
 10
3.05991887905605
 20
-1.190723444199441
 30
0.0
  0
VERTEX
  5
7DD
  8
DIMENSIONI
 10
3.098082595870209
 20
-1.546733768683217
 30
0.0
  0
VERTEX
  5
7DE
  8
DIMENSIONI
 10
3.126705383480829
 20
-1.710496674287937
 30
0.0
  0
VERTEX
  5
7DF
  8
DIMENSIONI
 10
3.161688790560475
 20
-1.864764742134545
 30
0.0
  0
VERTEX
  5
7E0
  8
DIMENSIONI
 10
3.203032817109147
 20
-2.00953797222304
 30
0.0
  0
VERTEX
  5
7E1
  8
DIMENSIONI
 10
3.250737463126847
 20
-2.144816364553424
 30
0.0
  0
VERTEX
  5
7E2
  8
DIMENSIONI
 10
3.295353982300888
 20
-2.247830745084397
 30
0.0
  0
VERTEX
  5
7E3
  8
DIMENSIONI
 10
3.345132743362835
 20
-2.337109874877908
 30
0.0
  0
VERTEX
  5
7E4
  8
DIMENSIONI
 10
3.400073746312687
 20
-2.412653753933955
 30
0.0
  0
VERTEX
  5
7E5
  8
DIMENSIONI
 10
3.460176991150445
 20
-2.474462382252539
 30
0.0
  0
VERTEX
  5
7E6
  8
DIMENSIONI
 10
3.525442477876109
 20
-2.52253575983366
 30
0.0
  0
VERTEX
  5
7E7
  8
DIMENSIONI
 10
3.595870206489678
 20
-2.556873886677318
 30
0.0
  0
VERTEX
  5
7E8
  8
DIMENSIONI
 10
3.671460176991153
 20
-2.577476762783512
 30
0.0
  0
VERTEX
  5
7E9
  8
DIMENSIONI
 10
3.752212389380534
 20
-2.584344388152244
 30
0.0
  0
VERTEX
  5
7EA
  8
DIMENSIONI
 10
3.832595870206493
 20
-2.575402647739264
 30
0.0
  0
VERTEX
  5
7EB
  8
DIMENSIONI
 10
3.914454277286139
 20
-2.548577426500326
 30
0.0
  0
VERTEX
  5
7EC
  8
DIMENSIONI
 10
3.997787610619472
 20
-2.50386872443543
 30
0.0
  0
VERTEX
  5
7ED
  8
DIMENSIONI
 10
4.082595870206493
 20
-2.441276541544574
 30
0.0
  0
VERTEX
  5
7EE
  8
DIMENSIONI
 10
4.162979351032452
 20
-2.357666659538675
 30
0.0
  0
VERTEX
  5
7EF
  8
DIMENSIONI
 10
4.233038348082599
 20
-2.249904860128645
 30
0.0
  0
VERTEX
  5
7F0
  8
DIMENSIONI
 10
4.292772861356935
 20
-2.117991143314486
 30
0.0
  0
VERTEX
  5
7F1
  8
DIMENSIONI
 10
4.34218289085546
 20
-1.961925509096197
 30
0.0
  0
VERTEX
  5
7F2
  8
DIMENSIONI
 10
4.401548672566374
 20
-1.68224261824074
 30
0.0
  0
VERTEX
  5
7F3
  8
DIMENSIONI
 10
4.443952802359885
 20
-1.350568576942804
 30
0.0
  0
VERTEX
  5
7F4
  8
DIMENSIONI
 10
4.469395280235991
 20
-0.9669033852023912
 30
0.0
  0
VERTEX
  5
7F5
  8
DIMENSIONI
 10
4.477876106194693
 20
-0.5312470430195004
 30
0.0
  0
VERTEX
  5
7F6
  8
DIMENSIONI
 10
4.469026548672569
 20
-0.2032603173557837
 30
0.0
  0
VERTEX
  5
7F7
  8
DIMENSIONI
 10
4.442477876106198
 20
0.0963340779244523
 30
0.0
  0
VERTEX
  5
7F8
  8
DIMENSIONI
 10
4.398230088495579
 20
0.3675361428212073
 30
0.0
  0
VERTEX
  5
7F9
  8
DIMENSIONI
 10
4.336283185840711
 20
0.6103458773344816
 30
0.0
  0
VERTEX
  5
7FA
  8
DIMENSIONI
 10
4.279314159292039
 20
0.7676098891338918
 30
0.0
  0
VERTEX
  5
7FB
  8
DIMENSIONI
 10
4.214601769911508
 20
0.9001688861840395
 30
0.0
  0
VERTEX
  5
7FC
  8
DIMENSIONI
 10
4.142146017699119
 20
1.008022868484924
 30
0.0
  0
VERTEX
  5
7FD
  8
DIMENSIONI
 10
4.061946902654871
 20
1.091171836036547
 30
0.0
  0
VERTEX
  5
7FE
  8
DIMENSIONI
 10
3.998340707964605
 20
1.133760331611768
 30
0.0
  0
VERTEX
  5
7FF
  8
DIMENSIONI
 10
3.928466076696168
 20
1.164180685594069
 30
0.0
  0
VERTEX
  5
800
  8
DIMENSIONI
 10
3.85232300884956
 20
1.18243289798345
 30
0.0
  0
VERTEX
  5
801
  8
DIMENSIONI
 10
3.769911504424782
 20
1.18851696877991
 30
0.0
  0
VERTEX
  5
802
  8
DIMENSIONI
 10
3.672382005899708
 20
1.177270656095544
 30
0.0
  0
VERTEX
  5
803
  8
DIMENSIONI
 10
3.580383480825962
 20
1.143531718042446
 30
0.0
  0
VERTEX
  5
804
  8
DIMENSIONI
 10
3.493915929203543
 20
1.087300154620617
 30
0.0
  0
VERTEX
  5
805
  8
DIMENSIONI
 10
3.412979351032451
 20
1.008575965830057
 30
0.0
  0
VERTEX
  5
806
  8
DIMENSIONI
 10
3.362002212389383
 20
0.9429878389863992
 30
0.0
  0
VERTEX
  5
807
  8
DIMENSIONI
 10
3.315265486725666
 20
0.868642337511473
 30
0.0
  0
VERTEX
  5
808
  8
DIMENSIONI
 10
3.272769174041301
 20
0.7855394614052784
 30
0.0
  0
VERTEX
  5
809
  8
DIMENSIONI
 10
3.234513274336286
 20
0.6936792106678153
 30
0.0
  0
VERTEX
  5
80A
  8
DIMENSIONI
 10
3.170722713864309
 20
0.4836865852990838
 30
0.0
  0
VERTEX
  5
80B
  8
DIMENSIONI
 10
3.123893805309737
 20
0.2386644614052784
 30
0.0
  0
VERTEX
  5
80C
  8
DIMENSIONI
 10
3.090339233038351
 20
-0.0229505828425093
 30
0.0
  0
VERTEX
  5
80D
  8
DIMENSIONI
 10
3.066371681415932
 20
-0.2827219692731878
 30
0.0
  0
VERTEX
  5
80E
  8
DIMENSIONI
 10
3.051991150442481
 20
-0.540649697886757
 30
0.0
  0
SEQEND
  5
879
  8
DIMENSIONI
  0
POLYLINE
  5
C8
  8
DIMENSIONI
 66
     1
 10
0.0
 20
0.0
 30
0.0
  0
VERTEX
  5
80F
  8
DIMENSIONI
 10
-14.76393202250021
 20
-0.616792765733365
 30
0.0
  0
VERTEX
  5
810
  8
DIMENSIONI
 10
-5.556047197640115
 20
-0.616792765733365
 30
0.0
  0
SEQEND
  5
87A
  8
DIMENSIONI
  0
POLYLINE
  5
C9
  8
DIMENSIONI
 66
     1
 10
0.0
 20
0.0
 30
0.0
  0
VERTEX
  5
811
  8
DIMENSIONI
 10
5.556047197640122
 20
-0.616792765733365
 30
0.0
  0
VERTEX
  5
812
  8
DIMENSIONI
 10
14.76393202250021
 20
-0.616792765733365
 30
0.0
  0
SEQEND
  5
87B
  8
DIMENSIONI
  0
POLYLINE
  5
CA
  8
DIMENSIONI
 66
     1
 10
0.0
 20
0.0
 30
0.0
  0
VERTEX
  5
813
  8
DIMENSIONI
 10
-18.0
 20
-0.616792765733365
 30
0.0
  0
VERTEX
  5
814
  8
DIMENSIONI
 10
-18.0
 20
-2.616792765733365
 30
0.0
  0
SEQEND
  5
87C
  8
DIMENSIONI
  0
POLYLINE
  5
CB
  8
DIMENSIONI
 66
     1
 10
0.0
 20
0.0
 30
0.0
  0
VERTEX
  5
815
  8
DIMENSIONI
 10
18.0
 20
-0.616792765733365
 30
0.0
  0
VERTEX
  5
816
  8
DIMENSIONI
 10
18.0
 20
-2.616792765733365
 30
0.0
  0
SEQEND
  5
87D
  8
DIMENSIONI
  0
POLYLINE
  5
CC
  8
DIMENSIONI
 66
     1
 10
0.0
 20
0.0
 30
0.0
  0
VERTEX
  5
817
  8
DIMENSIONI
 10
-18.0
 20
-0.616792765733365
 30
0.0
  0
VERTEX
  5
818
  8
DIMENSIONI
 10
-14.76393202250021
 20
-1.616792765733365
 30
0.0
  0
SEQEND
  5
87E
  8
DIMENSIONI
  0
POLYLINE
  5
CD
  8
DIMENSIONI
 66
     1
 10
0.0
 20
0.0
 30
0.0
  0
VERTEX
  5
819
  8
DIMENSIONI
 10
-14.76393202250021
 20
-1.616792765733365
 30
0.0
  0
VERTEX
  5
81A
  8
DIMENSIONI
 10
-14.76393202250021
 20
0.3832072342666351
 30
0.0
  0
SEQEND
  5
87F
  8
DIMENSIONI
  0
POLYLINE
  5
CE
  8
DIMENSIONI
 66
     1
 10
0.0
 20
0.0
 30
0.0
  0
VERTEX
  5
81B
  8
DIMENSIONI
 10
-14.76393202250021
 20
0.3832072342666351
 30
0.0
  0
VERTEX
  5
81C
  8
DIMENSIONI
 10
-18.0
 20
-0.616792765733365
 30
0.0
  0
SEQEND
  5
880
  8
DIMENSIONI
  0
POLYLINE
  5
CF
  8
DIMENSIONI
 66
     1
 10
0.0
 20
0.0
 30
0.0
  0
VERTEX
  5
81D
  8
DIMENSIONI
 10
18.0
 20
-0.616792765733365
 30
0.0
  0
VERTEX
  5
81E
  8
DIMENSIONI
 10
14.76393202250021
 20
0.3832072342666351
 30
0.0
  0
SEQEND
  5
881
  8
DIMENSIONI
  0
POLYLINE
  5
D0
  8
DIMENSIONI
 66
     1
 10
0.0
 20
0.0
 30
0.0
  0
VERTEX
  5
81F
  8
DIMENSIONI
 10
14.76393202250021
 20
0.3832072342666351
 30
0.0
  0
VERTEX
  5
820
  8
DIMENSIONI
 10
14.76393202250021
 20
-1.616792765733365
 30
0.0
  0
SEQEND
  5
882
  8
DIMENSIONI
  0
POLYLINE
  5
D1
  8
DIMENSIONI
 66
     1
 10
0.0
 20
0.0
 30
0.0
  0
VERTEX
  5
821
  8
DIMENSIONI
 10
14.76393202250021
 20
-1.616792765733365
 30
0.0
  0
VERTEX
  5
822
  8
DIMENSIONI
 10
18.0
 20
-0.616792765733365
 30
0.0
  0
SEQEND
  5
883
  8
DIMENSIONI
  0
ENDSEC
  0
EOF
