  0
SECTION
  2
HEADER
  9
$ACADVER
  1
AC1009
  9
$DWGCODEPAGE
  3
undefined
  9
$INSBASE
 10
0.0
 20
0.0
 30
0.0
  9
$EXTMIN
 10
-71.20358692526067
 20
-40.0
 30
0.0
  9
$EXTMAX
 10
40.0
 20
59.67155795884908
 30
0.0
  9
$LIMMIN
 10
0.0
 20
0.0
  9
$LIMMAX
 10
12.0
 20
9.0
  9
$ORTHOMODE
 70
     0
  9
$REGENMODE
 70
     1
  9
$FILLMODE
 70
     1
  9
$QTEXTMODE
 70
     0
  9
$MIRRTEXT
 70
     1
  9
$DRAGMODE
 70
     2
  9
$LTSCALE
 40
1.0
  9
$OSMODE
 70
    37
  9
$ATTMODE
 70
     1
  9
$TEXTSIZE
 40
0.2
  9
$TRACEWID
 40
0.05
  9
$TEXTSTYLE
  7
STANDARD
  9
$CLAYER
  8
0
  9
$CELTYPE
  6
BYLAYER
  9
$CECOLOR
 62
   256
  9
$DIMSCALE
 40
1.0
  9
$DIMASZ
 40
0.18
  9
$DIMEXO
 40
0.0625
  9
$DIMDLI
 40
0.38
  9
$DIMRND
 40
0.0
  9
$DIMDLE
 40
0.0
  9
$DIMEXE
 40
0.18
  9
$DIMTP
 40
0.0
  9
$DIMTM
 40
0.0
  9
$DIMTXT
 40
0.18
  9
$DIMCEN
 40
0.09
  9
$DIMTSZ
 40
0.0
  9
$DIMTOL
 70
     0
  9
$DIMLIM
 70
     0
  9
$DIMTIH
 70
     1
  9
$DIMTOH
 70
     1
  9
$DIMSE1
 70
     0
  9
$DIMSE2
 70
     0
  9
$DIMTAD
 70
     0
  9
$DIMZIN
 70
     0
  9
$DIMBLK
  1

  9
$DIMASO
 70
     1
  9
$DIMSHO
 70
     1
  9
$DIMPOST
  1

  9
$DIMAPOST
  1

  9
$DIMALT
 70
     0
  9
$DIMALTD
 70
     2
  9
$DIMALTF
 40
25.4
  9
$DIMLFAC
 40
1.0
  9
$DIMTOFL
 70
     0
  9
$DIMTVP
 40
0.0
  9
$DIMTIX
 70
     0
  9
$DIMSOXD
 70
     0
  9
$DIMSAH
 70
     0
  9
$DIMBLK1
  1

  9
$DIMBLK2
  1

  9
$DIMSTYLE
  2
STANDARD
  9
$DIMCLRD
 70
     0
  9
$DIMCLRE
 70
     0
  9
$DIMCLRT
 70
     0
  9
$DIMTFAC
 40
1.0
  9
$DIMGAP
 40
0.09
  9
$LUNITS
 70
     2
  9
$LUPREC
 70
     4
  9
$SKETCHINC
 40
0.1
  9
$FILLETRAD
 40
0.5
  9
$AUNITS
 70
     0
  9
$AUPREC
 70
     0
  9
$MENU
  1
.
  9
$ELEVATION
 40
0.0
  9
$PELEVATION
 40
0.0
  9
$THICKNESS
 40
0.0
  9
$LIMCHECK
 70
     0
  9
$CHAMFERA
 40
0.0
  9
$CHAMFERB
 40
0.0
  9
$SKPOLY
 70
     0
  9
$TDCREATE
 40
2454910.5
  9
$TDUPDATE
 40
2460206.442113461
  9
$TDINDWG
 40
0.0000000116
  9
$TDUSRTIMER
 40
0.0000000116
  9
$USRTIMER
 70
     1
  9
$ANGBASE
 50
0.0
  9
$ANGDIR
 70
     0
  9
$PDMODE
 70
     0
  9
$PDSIZE
 40
0.0
  9
$PLINEWID
 40
0.0
  9
$COORDS
 70
     1
  9
$SPLFRAME
 70
     0
  9
$SPLINETYPE
 70
     6
  9
$SPLINESEGS
 70
     8
  9
$ATTDIA
 70
     0
  9
$ATTREQ
 70
     1
  9
$HANDLING
 70
     1
  9
$HANDSEED
  5
AAB
  9
$SURFTAB1
 70
     6
  9
$SURFTAB2
 70
     6
  9
$SURFTYPE
 70
     6
  9
$SURFU
 70
     6
  9
$SURFV
 70
     6
  9
$UCSNAME
  2

  9
$UCSORG
 10
0.0
 20
0.0
 30
0.0
  9
$UCSXDIR
 10
1.0
 20
0.0
 30
0.0
  9
$UCSYDIR
 10
0.0
 20
1.0
 30
0.0
  9
$PUCSNAME
  2

  9
$PUCSORG
 10
0.0
 20
0.0
 30
0.0
  9
$PUCSXDIR
 10
1.0
 20
0.0
 30
0.0
  9
$PUCSYDIR
 10
0.0
 20
1.0
 30
0.0
  9
$USERI1
 70
     0
  9
$USERI2
 70
     0
  9
$USERI3
 70
     0
  9
$USERI4
 70
     0
  9
$USERI5
 70
     0
  9
$USERR1
 40
0.0
  9
$USERR2
 40
0.0
  9
$USERR3
 40
0.0
  9
$USERR4
 40
0.0
  9
$USERR5
 40
0.0
  9
$WORLDVIEW
 70
     1
  9
$SHADEDGE
 70
     3
  9
$SHADEDIF
 70
    70
  9
$TILEMODE
 70
     1
  9
$MAXACTVP
 70
    64
  9
$PLIMCHECK
 70
     0
  9
$PEXTMIN
 10
1.000000000000000E+20
 20
1.000000000000000E+20
 30
1.000000000000000E+20
  9
$PEXTMAX
 10
-1.000000000000000E+20
 20
-1.000000000000000E+20
 30
-1.000000000000000E+20
  9
$PLIMMIN
 10
0.0
 20
0.0
  9
$PLIMMAX
 10
12.0
 20
9.0
  9
$UNITMODE
 70
     0
  9
$VISRETAIN
 70
     1
  9
$PLINEGEN
 70
     0
  9
$PSLTSCALE
 70
     1
  0
ENDSEC
  0
SECTION
  2
TABLES
  0
TABLE
  2
VPORT
 70
     1
  0
VPORT
  2
*ACTIVE
 70
     0
 10
0.0
 20
0.0
 11
1.0
 21
1.0
 12
10.42990654205607
 22
4.5
 13
0.0
 23
0.0
 14
0.5
 24
0.5
 15
0.5
 25
0.5
 16
0.0
 26
0.0
 36
1.0
 17
0.0
 27
0.0
 37
0.0
 40
9.0
 41
1.972972972850329
 42
50.0
 43
0.0
 44
0.0
 50
0.0
 51
0.0
 71
     0
 72
   100
 73
     1
 74
     3
 75
     0
 76
     0
 77
     0
 78
     0
  0
ENDTAB
  0
TABLE
  2
LTYPE
 70
     2
  0
LTYPE
  2
CONTINUOUS
 70
     0
  3
Solid line
 72
    65
 73
     0
 40
0.0
  0
LTYPE
  2
CONTINUOUS2
 70
     0
  3
Solid Line
 72
    65
 73
     0
 40
0.0
  0
ENDTAB
  0
TABLE
  2
LAYER
 70
     5
  0
LAYER
  2
0
 70
     0
 62
     7
  6
CONTINUOUS
  0
LAYER
  2
LAYER_1
 70
     0
 62
     7
  6
CONTINUOUS
  0
LAYER
  2
CONTOUR
 70
     0
 62
     7
  6
CONTINUOUS
  0
LAYER
  2
REFERENCE_POINTS
 70
     0
 62
     1
  6
CONTINUOUS
  0
LAYER
  2
DIMENSIONI
 70
     0
 62
   253
  6
CONTINUOUS
  0
ENDTAB
  0
TABLE
  2
STYLE
 70
     1
  0
STYLE
  2
STANDARD
 70
     0
 40
0.0
 41
1.0
 50
0.0
 71
     0
 42
0.2
  3
txt
  4

  0
ENDTAB
  0
TABLE
  2
VIEW
 70
     0
  0
ENDTAB
  0
TABLE
  2
UCS
 70
     0
  0
ENDTAB
  0
TABLE
  2
APPID
 70
     1
  0
APPID
  2
ACAD
 70
     0
  0
ENDTAB
  0
TABLE
  2
DIMSTYLE
 70
     1
  0
DIMSTYLE
  2
STANDARD
 70
     0
  3

  4

  5

  6

  7

 40
1.0
 41
0.18
 42
0.0625
 43
0.38
 44
0.18
 45
0.0
 46
0.0
 47
0.0
 48
0.0
140
0.18
141
0.09
142
0.0
143
25.4
144
1.0
145
0.0
146
1.0
147
0.09
 71
     0
 72
     0
 73
     1
 74
     1
 75
     0
 76
     0
 77
     0
 78
     0
170
     0
171
     2
172
     0
173
     0
174
     0
175
     0
176
     0
177
     0
178
     0
  0
ENDTAB
  0
ENDSEC
  0
SECTION
  2
BLOCKS
  0
BLOCK
  8
0
  2
$MODEL_SPACE
 70
     0
 10
0.0
 20
0.0
 30
0.0
  3
$MODEL_SPACE
  1

  0
ENDBLK
  5
21
  8
0
  0
BLOCK
 67
     1
  8
0
  2
$PAPER_SPACE
 70
     0
 10
0.0
 20
0.0
 30
0.0
  3
$PAPER_SPACE
  1

  0
ENDBLK
  5
1D
 67
     1
  8
0
  0
ENDSEC
  0
SECTION
  2
ENTITIES
  0
POLYLINE
  5
70
  8
LAYER_1
 66
     1
 10
0.0
 20
0.0
 30
0.0
 70
     1
  0
VERTEX
  5
EB
  8
LAYER_1
 10
-40.0
 20
-36.36753236814714
 30
0.0
  0
VERTEX
  5
EC
  8
LAYER_1
 10
-36.36753236814714
 20
-40.0
 30
0.0
  0
VERTEX
  5
ED
  8
LAYER_1
 10
36.36753236814714
 20
-40.0
 30
0.0
  0
VERTEX
  5
EE
  8
LAYER_1
 10
40.0
 20
-36.36753236814714
 30
0.0
  0
VERTEX
  5
EF
  8
LAYER_1
 10
40.0
 20
36.36753236814714
 30
0.0
  0
VERTEX
  5
F0
  8
LAYER_1
 10
36.36753236814714
 20
40.0
 30
0.0
  0
VERTEX
  5
F1
  8
LAYER_1
 10
-36.36753236814715
 20
40.0
 30
0.0
  0
VERTEX
  5
F2
  8
LAYER_1
 10
-40.0
 20
36.36753236814713
 30
0.0
  0
SEQEND
  5
A3A
  8
LAYER_1
  0
POLYLINE
  5
71
  8
LAYER_1
 66
     1
 10
0.0
 20
0.0
 30
0.0
 70
     1
  0
VERTEX
  5
F3
  8
LAYER_1
 10
-33.5
 20
35.1
 30
0.0
 42
0.4142135623730951
  0
VERTEX
  5
F4
  8
LAYER_1
 10
-35.1
 20
33.5
 30
0.0
 42
0.4142135623730951
  0
VERTEX
  5
F5
  8
LAYER_1
 10
-33.5
 20
31.9
 30
0.0
 42
0.4142135623730951
  0
VERTEX
  5
F6
  8
LAYER_1
 10
-31.9
 20
33.5
 30
0.0
 42
0.4142135623730951
  0
SEQEND
  5
A3B
  8
LAYER_1
  0
POLYLINE
  5
72
  8
LAYER_1
 66
     1
 10
0.0
 20
0.0
 30
0.0
 70
     1
  0
VERTEX
  5
F7
  8
LAYER_1
 10
33.5
 20
35.1
 30
0.0
 42
0.4142135623730951
  0
VERTEX
  5
F8
  8
LAYER_1
 10
31.9
 20
33.5
 30
0.0
 42
0.4142135623730951
  0
VERTEX
  5
F9
  8
LAYER_1
 10
33.5
 20
31.9
 30
0.0
 42
0.4142135623730951
  0
VERTEX
  5
FA
  8
LAYER_1
 10
35.1
 20
33.5
 30
0.0
 42
0.4142135623730951
  0
SEQEND
  5
A3C
  8
LAYER_1
  0
POLYLINE
  5
73
  8
LAYER_1
 66
     1
 10
0.0
 20
0.0
 30
0.0
 70
     1
  0
VERTEX
  5
FB
  8
LAYER_1
 10
33.5
 20
-31.9
 30
0.0
 42
0.4142135623730951
  0
VERTEX
  5
FC
  8
LAYER_1
 10
31.9
 20
-33.5
 30
0.0
 42
0.4142135623730951
  0
VERTEX
  5
FD
  8
LAYER_1
 10
33.5
 20
-35.1
 30
0.0
 42
0.4142135623730951
  0
VERTEX
  5
FE
  8
LAYER_1
 10
35.1
 20
-33.5
 30
0.0
 42
0.4142135623730951
  0
SEQEND
  5
A3D
  8
LAYER_1
  0
POLYLINE
  5
74
  8
LAYER_1
 66
     1
 10
0.0
 20
0.0
 30
0.0
 70
     1
  0
VERTEX
  5
FF
  8
LAYER_1
 10
-33.5
 20
-31.9
 30
0.0
 42
0.4142135623730951
  0
VERTEX
  5
100
  8
LAYER_1
 10
-35.1
 20
-33.5
 30
0.0
 42
0.4142135623730951
  0
VERTEX
  5
101
  8
LAYER_1
 10
-33.5
 20
-35.1
 30
0.0
 42
0.4142135623730951
  0
VERTEX
  5
102
  8
LAYER_1
 10
-31.9
 20
-33.5
 30
0.0
 42
0.4142135623730951
  0
SEQEND
  5
A3E
  8
LAYER_1
  0
POLYLINE
  5
76
  8
CONTOUR
 66
     1
 10
0.0
 20
0.0
 30
0.0
 70
     1
  0
VERTEX
  5
103
  8
CONTOUR
 10
-25.00000000000001
 20
-23.40000000000001
 30
0.0
 42
0.4142135623730951
  0
VERTEX
  5
104
  8
CONTOUR
 10
-26.60000000000001
 20
-25.00000000000001
 30
0.0
 42
0.4142135623730951
  0
VERTEX
  5
105
  8
CONTOUR
 10
-25.00000000000001
 20
-26.60000000000001
 30
0.0
 42
0.4142135623730951
  0
VERTEX
  5
106
  8
CONTOUR
 10
-23.40000000000001
 20
-25.00000000000001
 30
0.0
 42
0.4142135623730951
  0
SEQEND
  5
A3F
  8
CONTOUR
  0
POLYLINE
  5
77
  8
CONTOUR
 66
     1
 10
0.0
 20
0.0
 30
0.0
 70
     1
  0
VERTEX
  5
107
  8
CONTOUR
 10
25.0
 20
-23.40000000000001
 30
0.0
 42
0.4142135623730951
  0
VERTEX
  5
108
  8
CONTOUR
 10
23.40000000000001
 20
-25.00000000000001
 30
0.0
 42
0.4142135623730951
  0
VERTEX
  5
109
  8
CONTOUR
 10
25.0
 20
-26.60000000000001
 30
0.0
 42
0.4142135623730951
  0
VERTEX
  5
10A
  8
CONTOUR
 10
26.59999999999999
 20
-25.00000000000001
 30
0.0
 42
0.4142135623730951
  0
SEQEND
  5
A40
  8
CONTOUR
  0
POLYLINE
  5
78
  8
CONTOUR
 66
     1
 10
0.0
 20
0.0
 30
0.0
 70
     1
  0
VERTEX
  5
10B
  8
CONTOUR
 10
25.0
 20
26.59999999999999
 30
0.0
 42
0.4142135623730951
  0
VERTEX
  5
10C
  8
CONTOUR
 10
23.40000000000001
 20
25.0
 30
0.0
 42
0.4142135623730951
  0
VERTEX
  5
10D
  8
CONTOUR
 10
25.0
 20
23.40000000000001
 30
0.0
 42
0.4142135623730951
  0
VERTEX
  5
10E
  8
CONTOUR
 10
26.59999999999999
 20
25.0
 30
0.0
 42
0.4142135623730951
  0
SEQEND
  5
A41
  8
CONTOUR
  0
POLYLINE
  5
79
  8
CONTOUR
 66
     1
 10
0.0
 20
0.0
 30
0.0
 70
     1
  0
VERTEX
  5
10F
  8
CONTOUR
 10
-25.00000000000001
 20
26.59999999999999
 30
0.0
 42
0.4142135623730951
  0
VERTEX
  5
110
  8
CONTOUR
 10
-26.60000000000001
 20
25.0
 30
0.0
 42
0.4142135623730951
  0
VERTEX
  5
111
  8
CONTOUR
 10
-25.00000000000001
 20
23.40000000000001
 30
0.0
 42
0.4142135623730951
  0
VERTEX
  5
112
  8
CONTOUR
 10
-23.40000000000001
 20
25.0
 30
0.0
 42
0.4142135623730951
  0
SEQEND
  5
A42
  8
CONTOUR
  0
POLYLINE
  5
7B
  8
REFERENCE_POINTS
 66
     1
 10
0.0
 20
0.0
 30
0.0
  0
VERTEX
  5
113
  8
REFERENCE_POINTS
 10
-2.826000000000008
 20
0.0
 30
0.0
  0
VERTEX
  5
114
  8
REFERENCE_POINTS
 10
2.825999999999993
 20
0.0
 30
0.0
  0
SEQEND
  5
A43
  8
REFERENCE_POINTS
  0
POLYLINE
  5
7C
  8
REFERENCE_POINTS
 66
     1
 10
0.0
 20
0.0
 30
0.0
  0
VERTEX
  5
115
  8
REFERENCE_POINTS
 10
-0.0000000000000071
 20
-2.826000000000008
 30
0.0
  0
VERTEX
  5
116
  8
REFERENCE_POINTS
 10
-0.0000000000000071
 20
2.825999999999993
 30
0.0
  0
SEQEND
  5
A44
  8
REFERENCE_POINTS
  0
POLYLINE
  5
7D
  8
REFERENCE_POINTS
 66
     1
 10
0.0
 20
0.0
 30
0.0
  0
VERTEX
  5
117
  8
REFERENCE_POINTS
 10
-27.82600000000001
 20
-25.00000000000001
 30
0.0
  0
VERTEX
  5
118
  8
REFERENCE_POINTS
 10
-22.17400000000001
 20
-25.00000000000001
 30
0.0
  0
SEQEND
  5
A45
  8
REFERENCE_POINTS
  0
POLYLINE
  5
7E
  8
REFERENCE_POINTS
 66
     1
 10
0.0
 20
0.0
 30
0.0
  0
VERTEX
  5
119
  8
REFERENCE_POINTS
 10
-25.00000000000001
 20
-27.826
 30
0.0
  0
VERTEX
  5
11A
  8
REFERENCE_POINTS
 10
-25.00000000000001
 20
-22.17400000000001
 30
0.0
  0
SEQEND
  5
A46
  8
REFERENCE_POINTS
  0
POLYLINE
  5
7F
  8
REFERENCE_POINTS
 66
     1
 10
0.0
 20
0.0
 30
0.0
  0
VERTEX
  5
11B
  8
REFERENCE_POINTS
 10
22.17399999999999
 20
-25.00000000000001
 30
0.0
  0
VERTEX
  5
11C
  8
REFERENCE_POINTS
 10
27.82599999999999
 20
-25.00000000000001
 30
0.0
  0
SEQEND
  5
A47
  8
REFERENCE_POINTS
  0
POLYLINE
  5
80
  8
REFERENCE_POINTS
 66
     1
 10
0.0
 20
0.0
 30
0.0
  0
VERTEX
  5
11D
  8
REFERENCE_POINTS
 10
25.0
 20
-27.826
 30
0.0
  0
VERTEX
  5
11E
  8
REFERENCE_POINTS
 10
25.0
 20
-22.17400000000001
 30
0.0
  0
SEQEND
  5
A48
  8
REFERENCE_POINTS
  0
POLYLINE
  5
81
  8
REFERENCE_POINTS
 66
     1
 10
0.0
 20
0.0
 30
0.0
  0
VERTEX
  5
11F
  8
REFERENCE_POINTS
 10
22.17399999999999
 20
25.0
 30
0.0
  0
VERTEX
  5
120
  8
REFERENCE_POINTS
 10
27.82599999999999
 20
25.0
 30
0.0
  0
SEQEND
  5
A49
  8
REFERENCE_POINTS
  0
POLYLINE
  5
82
  8
REFERENCE_POINTS
 66
     1
 10
0.0
 20
0.0
 30
0.0
  0
VERTEX
  5
121
  8
REFERENCE_POINTS
 10
25.0
 20
22.17399999999999
 30
0.0
  0
VERTEX
  5
122
  8
REFERENCE_POINTS
 10
25.0
 20
27.82599999999999
 30
0.0
  0
SEQEND
  5
A4A
  8
REFERENCE_POINTS
  0
POLYLINE
  5
83
  8
REFERENCE_POINTS
 66
     1
 10
0.0
 20
0.0
 30
0.0
  0
VERTEX
  5
123
  8
REFERENCE_POINTS
 10
-27.82600000000001
 20
25.0
 30
0.0
  0
VERTEX
  5
124
  8
REFERENCE_POINTS
 10
-22.17400000000001
 20
25.0
 30
0.0
  0
SEQEND
  5
A4B
  8
REFERENCE_POINTS
  0
POLYLINE
  5
84
  8
REFERENCE_POINTS
 66
     1
 10
0.0
 20
0.0
 30
0.0
  0
VERTEX
  5
125
  8
REFERENCE_POINTS
 10
-25.00000000000001
 20
22.17399999999999
 30
0.0
  0
VERTEX
  5
126
  8
REFERENCE_POINTS
 10
-25.00000000000001
 20
27.82599999999999
 30
0.0
  0
SEQEND
  5
A4C
  8
REFERENCE_POINTS
  0
POLYLINE
  5
85
  8
REFERENCE_POINTS
 66
     1
 10
0.0
 20
0.0
 30
0.0
  0
VERTEX
  5
127
  8
REFERENCE_POINTS
 10
-2.826000000000008
 20
0.0
 30
0.0
  0
VERTEX
  5
128
  8
REFERENCE_POINTS
 10
2.825999999999993
 20
0.0
 30
0.0
  0
SEQEND
  5
A4D
  8
REFERENCE_POINTS
  0
POLYLINE
  5
86
  8
REFERENCE_POINTS
 66
     1
 10
0.0
 20
0.0
 30
0.0
  0
VERTEX
  5
129
  8
REFERENCE_POINTS
 10
-0.0000000000000071
 20
-2.826000000000008
 30
0.0
  0
VERTEX
  5
12A
  8
REFERENCE_POINTS
 10
-0.0000000000000071
 20
2.825999999999993
 30
0.0
  0
SEQEND
  5
A4E
  8
REFERENCE_POINTS
  0
POLYLINE
  5
87
  8
REFERENCE_POINTS
 66
     1
 10
0.0
 20
0.0
 30
0.0
 70
     1
  0
VERTEX
  5
12B
  8
REFERENCE_POINTS
 10
-33.5
 20
36.60000000011642
 30
0.0
 42
0.4142135623730951
  0
VERTEX
  5
12C
  8
REFERENCE_POINTS
 10
-36.6
 20
33.50000000011642
 30
0.0
 42
0.4142135623730951
  0
VERTEX
  5
12D
  8
REFERENCE_POINTS
 10
-33.5
 20
30.40000000011641
 30
0.0
 42
0.4142135623730951
  0
VERTEX
  5
12E
  8
REFERENCE_POINTS
 10
-30.4
 20
33.50000000011642
 30
0.0
 42
0.4142135623730951
  0
SEQEND
  5
A4F
  8
REFERENCE_POINTS
  0
POLYLINE
  5
88
  8
REFERENCE_POINTS
 66
     1
 10
0.0
 20
0.0
 30
0.0
 70
     1
  0
VERTEX
  5
12F
  8
REFERENCE_POINTS
 10
33.5
 20
36.6
 30
0.0
 42
0.4142135623730951
  0
VERTEX
  5
130
  8
REFERENCE_POINTS
 10
30.4
 20
33.5
 30
0.0
 42
0.4142135623730951
  0
VERTEX
  5
131
  8
REFERENCE_POINTS
 10
33.5
 20
30.4
 30
0.0
 42
0.4142135623730951
  0
VERTEX
  5
132
  8
REFERENCE_POINTS
 10
36.6
 20
33.5
 30
0.0
 42
0.4142135623730951
  0
SEQEND
  5
A50
  8
REFERENCE_POINTS
  0
POLYLINE
  5
89
  8
REFERENCE_POINTS
 66
     1
 10
0.0
 20
0.0
 30
0.0
 70
     1
  0
VERTEX
  5
133
  8
REFERENCE_POINTS
 10
-33.5
 20
-30.4
 30
0.0
 42
0.4142135623730951
  0
VERTEX
  5
134
  8
REFERENCE_POINTS
 10
-36.6
 20
-33.5
 30
0.0
 42
0.4142135623730951
  0
VERTEX
  5
135
  8
REFERENCE_POINTS
 10
-33.5
 20
-36.6
 30
0.0
 42
0.4142135623730951
  0
VERTEX
  5
136
  8
REFERENCE_POINTS
 10
-30.4
 20
-33.5
 30
0.0
 42
0.4142135623730951
  0
SEQEND
  5
A51
  8
REFERENCE_POINTS
  0
POLYLINE
  5
8A
  8
REFERENCE_POINTS
 66
     1
 10
0.0
 20
0.0
 30
0.0
 70
     1
  0
VERTEX
  5
137
  8
REFERENCE_POINTS
 10
33.5
 20
-30.4
 30
0.0
 42
0.4142135623730951
  0
VERTEX
  5
138
  8
REFERENCE_POINTS
 10
30.4
 20
-33.5
 30
0.0
 42
0.4142135623730951
  0
VERTEX
  5
139
  8
REFERENCE_POINTS
 10
33.5
 20
-36.6
 30
0.0
 42
0.4142135623730951
  0
VERTEX
  5
13A
  8
REFERENCE_POINTS
 10
36.6
 20
-33.5
 30
0.0
 42
0.4142135623730951
  0
SEQEND
  5
A52
  8
REFERENCE_POINTS
  0
POLYLINE
  5
8B
  8
REFERENCE_POINTS
 66
     1
 10
0.0
 20
0.0
 30
0.0
 70
     1
  0
VERTEX
  5
13B
  8
REFERENCE_POINTS
 10
0.0
 20
28.0
 30
0.0
 42
0.4142135623730951
  0
VERTEX
  5
13C
  8
REFERENCE_POINTS
 10
-28.0
 20
0.0
 30
0.0
 42
0.4142135623730951
  0
VERTEX
  5
13D
  8
REFERENCE_POINTS
 10
0.0
 20
-28.0
 30
0.0
 42
0.4142135623730951
  0
VERTEX
  5
13E
  8
REFERENCE_POINTS
 10
28.0
 20
0.0
 30
0.0
 42
0.4142135623730951
  0
SEQEND
  5
A53
  8
REFERENCE_POINTS
  0
POLYLINE
  5
8D
  8
DIMENSIONI
 66
     1
 10
0.0
 20
0.0
 30
0.0
 70
     1
  0
VERTEX
  5
13F
  8
DIMENSIONI
 10
-4.219858601884569
 20
50.00204021087662
 30
0.0
  0
VERTEX
  5
140
  8
DIMENSIONI
 10
-4.436211846722328
 20
50.18714345571438
 30
0.0
  0
VERTEX
  5
141
  8
DIMENSIONI
 10
-4.610345327548286
 20
50.35307265925421
 30
0.0
  0
VERTEX
  5
142
  8
DIMENSIONI
 10
-4.742259044362445
 20
50.4998278214961
 30
0.0
  0
VERTEX
  5
143
  8
DIMENSIONI
 10
-4.831952997164805
 20
50.62740894244004
 30
0.0
  0
VERTEX
  5
144
  8
DIMENSIONI
 10
-4.891964059111707
 20
50.7465092374253
 30
0.0
  0
VERTEX
  5
145
  8
DIMENSIONI
 10
-4.934829103359495
 20
50.86782192179108
 30
0.0
  0
VERTEX
  5
146
  8
DIMENSIONI
 10
-4.960548129908167
 20
50.99134699553738
 30
0.0
  0
VERTEX
  5
147
  8
DIMENSIONI
 10
-4.969121138757725
 20
51.11708445866423
 30
0.0
  0
VERTEX
  5
148
  8
DIMENSIONI
 10
-4.964419811324096
 20
51.21274725364948
 30
0.0
  0
VERTEX
  5
149
  8
DIMENSIONI
 10
-4.950315829023211
 20
51.3050453731185
 30
0.0
  0
VERTEX
  5
14A
  8
DIMENSIONI
 10
-4.92680919185507
 20
51.3939788170713
 30
0.0
  0
VERTEX
  5
14B
  8
DIMENSIONI
 10
-4.893899899819672
 20
51.47954758550789
 30
0.0
  0
VERTEX
  5
14C
  8
DIMENSIONI
 10
-4.851587952917018
 20
51.56175167842824
 30
0.0
  0
VERTEX
  5
14D
  8
DIMENSIONI
 10
-4.799873351147106
 20
51.64059109583236
 30
0.0
  0
VERTEX
  5
14E
  8
DIMENSIONI
 10
-4.738756094509937
 20
51.71606583772027
 30
0.0
  0
VERTEX
  5
14F
  8
DIMENSIONI
 10
-4.668236183005512
 20
51.78817590409196
 30
0.0
  0
VERTEX
  5
150
  8
DIMENSIONI
 10
-4.589926817223802
 20
51.85420189966718
 30
0.0
  0
VERTEX
  5
151
  8
DIMENSIONI
 10
-4.505441197754775
 20
51.91142442916571
 30
0.0
  0
VERTEX
  5
152
  8
DIMENSIONI
 10
-4.414779324598432
 20
51.95984349258754
 30
0.0
  0
VERTEX
  5
153
  8
DIMENSIONI
 10
-4.317941197754775
 20
51.99945908993267
 30
0.0
  0
VERTEX
  5
154
  8
DIMENSIONI
 10
-4.214926817223802
 20
52.0302712212011
 30
0.0
  0
VERTEX
  5
155
  8
DIMENSIONI
 10
-4.105736183005512
 20
52.05227988639284
 30
0.0
  0
VERTEX
  5
156
  8
DIMENSIONI
 10
-3.990369295099907
 20
52.06548508550789
 30
0.0
  0
VERTEX
  5
157
  8
DIMENSIONI
 10
-3.868826153506988
 20
52.06988681854624
 30
0.0
  0
VERTEX
  5
158
  8
DIMENSIONI
 10
-3.750832053212003
 20
52.06578467990317
 30
0.0
  0
VERTEX
  5
159
  8
DIMENSIONI
 10
-3.638737657931767
 20
52.05347826397396
 30
0.0
  0
VERTEX
  5
15A
  8
DIMENSIONI
 10
-3.53254296766628
 20
52.03296757075863
 30
0.0
  0
VERTEX
  5
15B
  8
DIMENSIONI
 10
-3.432247982415542
 20
52.00425260025715
 30
0.0
  0
VERTEX
  5
15C
  8
DIMENSIONI
 10
-3.337852702179554
 20
51.96733335246954
 30
0.0
  0
VERTEX
  5
15D
  8
DIMENSIONI
 10
-3.249357126958315
 20
51.92220982739579
 30
0.0
  0
VERTEX
  5
15E
  8
DIMENSIONI
 10
-3.166761256751825
 20
51.86888202503592
 30
0.0
  0
VERTEX
  5
15F
  8
DIMENSIONI
 10
-3.090065091560085
 20
51.80734994538989
 30
0.0
  0
VERTEX
  5
160
  8
DIMENSIONI
 10
-3.020927923418492
 20
51.74056344096512
 30
0.0
  0
VERTEX
  5
161
  8
DIMENSIONI
 10
-2.961009044362445
 20
51.67147236426895
 30
0.0
  0
VERTEX
  5
162
  8
DIMENSIONI
 10
-2.910308454391943
 20
51.6000767153014
 30
0.0
  0
VERTEX
  5
163
  8
DIMENSIONI
 10
-2.868826153506987
 20
51.52637649406246
 30
0.0
  0
VERTEX
  5
164
  8
DIMENSIONI
 10
-2.836562141707577
 20
51.45037170055214
 30
0.0
  0
VERTEX
  5
165
  8
DIMENSIONI
 10
-2.813516418993713
 20
51.37206233477042
 30
0.0
  0
VERTEX
  5
166
  8
DIMENSIONI
 10
-2.799688985365394
 20
51.29144839671733
 30
0.0
  0
VERTEX
  5
167
  8
DIMENSIONI
 10
-2.795079840822622
 20
51.20852988639285
 30
0.0
  0
VERTEX
  5
168
  8
DIMENSIONI
 10
-2.805035593035011
 20
51.09588239376748
 30
0.0
  0
VERTEX
  5
169
  8
DIMENSIONI
 10
-2.834902849672179
 20
50.98212870645185
 30
0.0
  0
VERTEX
  5
16A
  8
DIMENSIONI
 10
-2.884681610734127
 20
50.86726882444594
 30
0.0
  0
VERTEX
  5
16B
  8
DIMENSIONI
 10
-2.954371876220852
 20
50.75130274774978
 30
0.0
  0
VERTEX
  5
16C
  8
DIMENSIONI
 10
-3.055588690380144
 20
50.62962133182057
 30
0.0
  0
VERTEX
  5
16D
  8
DIMENSIONI
 10
-3.19994709745979
 20
50.49761543211555
 30
0.0
  0
VERTEX
  5
16E
  8
DIMENSIONI
 10
-3.38744709745979
 20
50.35528504863473
 30
0.0
  0
VERTEX
  5
16F
  8
DIMENSIONI
 10
-3.618088690380144
 20
50.2026301813781
 30
0.0
  0
VERTEX
  5
170
  8
DIMENSIONI
 10
-3.380441197754775
 20
50.01273342621586
 30
0.0
  0
VERTEX
  5
171
  8
DIMENSIONI
 10
-3.186672761176604
 20
49.84422310173208
 30
0.0
  0
VERTEX
  5
172
  8
DIMENSIONI
 10
-3.03678338064563
 20
49.69709920792677
 30
0.0
  0
VERTEX
  5
173
  8
DIMENSIONI
 10
-2.930773056161855
 20
49.57136174479992
 30
0.0
  0
VERTEX
  5
174
  8
DIMENSIONI
 10
-2.832690460291648
 20
49.41889124332499
 30
0.0
  0
VERTEX
  5
175
  8
DIMENSIONI
 10
-2.762631463241501
 20
49.26236469465243
 30
0.0
  0
VERTEX
  5
176
  8
DIMENSIONI
 10
-2.720596065011412
 20
49.10178209878222
 30
0.0
  0
VERTEX
  5
177
  8
DIMENSIONI
 10
-2.706584265601383
 20
48.93714345571438
 30
0.0
  0
VERTEX
  5
178
  8
DIMENSIONI
 10
-2.711608233153005
 20
48.83359902356099
 30
0.0
  0
VERTEX
  5
179
  8
DIMENSIONI
 10
-2.726680135807872
 20
48.7338801813781
 30
0.0
  0
VERTEX
  5
17A
  8
DIMENSIONI
 10
-2.751799973565984
 20
48.63798692916571
 30
0.0
  0
VERTEX
  5
17B
  8
DIMENSIONI
 10
-2.786967746427342
 20
48.54591926692382
 30
0.0
  0
VERTEX
  5
17C
  8
DIMENSIONI
 10
-2.832183454391943
 20
48.45767719465243
 30
0.0
  0
VERTEX
  5
17D
  8
DIMENSIONI
 10
-2.88744709745979
 20
48.37326071235155
 30
0.0
  0
VERTEX
  5
17E
  8
DIMENSIONI
 10
-2.952758675630881
 20
48.29266982002117
 30
0.0
  0
VERTEX
  5
17F
  8
DIMENSIONI
 10
-3.028118188905218
 20
48.21590451766128
 30
0.0
  0
VERTEX
  5
180
  8
DIMENSIONI
 10
-3.111635888020262
 20
48.14573029199757
 30
0.0
  0
VERTEX
  5
181
  8
DIMENSIONI
 10
-3.201422023713477
 20
48.08491262975568
 30
0.0
  0
VERTEX
  5
182
  8
DIMENSIONI
 10
-3.297476595984864
 20
48.03345153093561
 30
0.0
  0
VERTEX
  5
183
  8
DIMENSIONI
 10
-3.399799604834421
 20
47.99134699553738
 30
0.0
  0
VERTEX
  5
184
  8
DIMENSIONI
 10
-3.50839105026215
 20
47.95859902356098
 30
0.0
  0
VERTEX
  5
185
  8
DIMENSIONI
 10
-3.62325093226805
 20
47.93520761500641
 30
0.0
  0
VERTEX
  5
186
  8
DIMENSIONI
 10
-3.74437925085212
 20
47.92117276987366
 30
0.0
  0
VERTEX
  5
187
  8
DIMENSIONI
 10
-3.871776006014362
 20
47.91649448816275
 30
0.0
  0
VERTEX
  5
188
  8
DIMENSIONI
 10
-4.010188616633831
 20
47.92207155305951
 30
0.0
  0
VERTEX
  5
189
  8
DIMENSIONI
 10
-4.140765681530587
 20
47.93880274774978
 30
0.0
  0
VERTEX
  5
18A
  8
DIMENSIONI
 10
-4.263507200704628
 20
47.96668807223355
 30
0.0
  0
VERTEX
  5
18B
  8
DIMENSIONI
 10
-4.378413174155956
 20
48.00572752651084
 30
0.0
  0
VERTEX
  5
18C
  8
DIMENSIONI
 10
-4.485483601884569
 20
48.05592111058164
 30
0.0
  0
VERTEX
  5
18D
  8
DIMENSIONI
 10
-4.584718483890468
 20
48.11726882444594
 30
0.0
  0
VERTEX
  5
18E
  8
DIMENSIONI
 10
-4.676117820173654
 20
48.18977066810376
 30
0.0
  0
VERTEX
  5
18F
  8
DIMENSIONI
 10
-4.759681610734126
 20
48.27342664155509
 30
0.0
  0
VERTEX
  5
190
  8
DIMENSIONI
 10
-4.870669811324097
 20
48.41981307223355
 30
0.0
  0
VERTEX
  5
191
  8
DIMENSIONI
 10
-4.914272318698728
 20
48.49549522562588
 30
0.0
  0
VERTEX
  5
192
  8
DIMENSIONI
 10
-4.949947097459789
 20
48.57283667105361
 30
0.0
  0
VERTEX
  5
193
  8
DIMENSIONI
 10
-4.977694147607282
 20
48.65183740851673
 30
0.0
  0
VERTEX
  5
194
  8
DIMENSIONI
 10
-4.997513469141206
 20
48.73249743801526
 30
0.0
  0
VERTEX
  5
195
  8
DIMENSIONI
 10
-5.00940506206156
 20
48.81481675954919
 30
0.0
  0
VERTEX
  5
196
  8
DIMENSIONI
 10
-5.013368926368345
 20
48.89879537311851
 30
0.0
  0
VERTEX
  5
197
  8
DIMENSIONI
 10
-5.002214796574834
 20
49.0312621872778
 30
0.0
  0
VERTEX
  5
198
  8
DIMENSIONI
 10
-4.968752407194303
 20
49.16317590409196
 30
0.0
  0
VERTEX
  5
199
  8
DIMENSIONI
 10
-4.912981758226751
 20
49.29453652356099
 30
0.0
  0
VERTEX
  5
19A
  8
DIMENSIONI
 10
-4.834902849672179
 20
49.42534404568488
 30
0.0
  0
VERTEX
  5
19B
  8
DIMENSIONI
 10
-4.729537805424392
 20
49.55928578609787
 30
0.0
  0
VERTEX
  5
19C
  8
DIMENSIONI
 10
-4.591908749377194
 20
49.70004906043415
 30
0.0
  0
VERTEX
  5
19D
  8
DIMENSIONI
 10
-4.422015681530587
 20
49.84763386869373
 30
0.0
  0
SEQEND
  5
A54
  8
DIMENSIONI
  0
POLYLINE
  5
8E
  8
DIMENSIONI
 66
     1
 10
0.0
 20
0.0
 30
0.0
 70
     1
  0
VERTEX
  5
19E
  8
DIMENSIONI
 10
-3.756731758226752
 20
50.31767442916571
 30
0.0
  0
VERTEX
  5
19F
  8
DIMENSIONI
 10
-3.595964796574834
 20
50.46857782149608
 30
0.0
  0
VERTEX
  5
1A0
  8
DIMENSIONI
 10
-3.467646212504038
 20
50.60270392769078
 30
0.0
  0
VERTEX
  5
1A1
  8
DIMENSIONI
 10
-3.371776006014362
 20
50.72005274774978
 30
0.0
  0
VERTEX
  5
1A2
  8
DIMENSIONI
 10
-3.308354177105808
 20
50.82062428167308
 30
0.0
  0
VERTEX
  5
1A3
  8
DIMENSIONI
 10
-3.267056242002563
 20
50.91584920792677
 30
0.0
  0
VERTEX
  5
1A4
  8
DIMENSIONI
 10
-3.237557716928816
 20
51.01715820497692
 30
0.0
  0
VERTEX
  5
1A5
  8
DIMENSIONI
 10
-3.219858601884568
 20
51.12455127282352
 30
0.0
  0
VERTEX
  5
1A6
  8
DIMENSIONI
 10
-3.213958896869819
 20
51.23802841146659
 30
0.0
  0
VERTEX
  5
1A7
  8
DIMENSIONI
 10
-3.224836477990763
 20
51.38450702503592
 30
0.0
  0
VERTEX
  5
1A8
  8
DIMENSIONI
 10
-3.257469221353595
 20
51.51420835246955
 30
0.0
  0
VERTEX
  5
1A9
  8
DIMENSIONI
 10
-3.311857126958315
 20
51.62713239376748
 30
0.0
  0
VERTEX
  5
1AA
  8
DIMENSIONI
 10
-3.388000194804923
 20
51.72327914892972
 30
0.0
  0
VERTEX
  5
1AB
  8
DIMENSIONI
 10
-3.482948572386044
 20
51.80006749701231
 30
0.0
  0
VERTEX
  5
1AC
  8
DIMENSIONI
 10
-3.593752407194303
 20
51.85491631707131
 30
0.0
  0
VERTEX
  5
1AD
  8
DIMENSIONI
 10
-3.720411699229702
 20
51.88782560910671
 30
0.0
  0
VERTEX
  5
1AE
  8
DIMENSIONI
 10
-3.862926448492238
 20
51.89879537311851
 30
0.0
  0
VERTEX
  5
1AF
  8
DIMENSIONI
 10
-4.00636302666333
 20
51.88791779199757
 30
0.0
  0
VERTEX
  5
1B0
  8
DIMENSIONI
 10
-4.135787805424392
 20
51.85528504863473
 30
0.0
  0
VERTEX
  5
1B1
  8
DIMENSIONI
 10
-4.251200784775424
 20
51.80089714303001
 30
0.0
  0
VERTEX
  5
1B2
  8
DIMENSIONI
 10
-4.352601964716428
 20
51.72475407518341
 30
0.0
  0
VERTEX
  5
1B3
  8
DIMENSIONI
 10
-4.435197834922917
 20
51.63404611058164
 30
0.0
  0
VERTEX
  5
1B4
  8
DIMENSIONI
 10
-4.49419488507041
 20
51.53596351471143
 30
0.0
  0
VERTEX
  5
1B5
  8
DIMENSIONI
 10
-4.529593115158905
 20
51.43050628757278
 30
0.0
  0
VERTEX
  5
1B6
  8
DIMENSIONI
 10
-4.541392525188403
 20
51.31767442916571
 30
0.0
  0
VERTEX
  5
1B7
  8
DIMENSIONI
 10
-4.536506831973064
 20
51.24097826397396
 30
0.0
  0
VERTEX
  5
1B8
  8
DIMENSIONI
 10
-4.521849752327046
 20
51.16428209878222
 30
0.0
  0
VERTEX
  5
1B9
  8
DIMENSIONI
 10
-4.497421286250351
 20
51.08758593359048
 30
0.0
  0
VERTEX
  5
1BA
  8
DIMENSIONI
 10
-4.463221433742976
 20
51.01088976839875
 30
0.0
  0
VERTEX
  5
1BB
  8
DIMENSIONI
 10
-4.419987657931765
 20
50.93511543211555
 30
0.0
  0
VERTEX
  5
1BC
  8
DIMENSIONI
 10
-4.368457421943566
 20
50.86118475364948
 30
0.0
  0
VERTEX
  5
1BD
  8
DIMENSIONI
 10
-4.240507569436192
 20
50.71885437016866
 30
0.0
  0
SEQEND
  5
A55
  8
DIMENSIONI
  0
POLYLINE
  5
8F
  8
DIMENSIONI
 66
     1
 10
0.0
 20
0.0
 30
0.0
 70
     1
  0
VERTEX
  5
1BE
  8
DIMENSIONI
 10
-4.081215534037961
 20
49.88994581559638
 30
0.0
  0
VERTEX
  5
1BF
  8
DIMENSIONI
 10
-4.195706684480439
 20
49.78439640556689
 30
0.0
  0
VERTEX
  5
1C0
  8
DIMENSIONI
 10
-4.294342377695779
 20
49.67423785099461
 30
0.0
  0
VERTEX
  5
1C1
  8
DIMENSIONI
 10
-4.377122613683979
 20
49.55947015187957
 30
0.0
  0
VERTEX
  5
1C2
  8
DIMENSIONI
 10
-4.444047392445041
 20
49.44009330822175
 30
0.0
  0
VERTEX
  5
1C3
  8
DIMENSIONI
 10
-4.495669811324097
 20
49.31592295423945
 30
0.0
  0
VERTEX
  5
1C4
  8
DIMENSIONI
 10
-4.53254296766628
 20
49.18677472415095
 30
0.0
  0
VERTEX
  5
1C5
  8
DIMENSIONI
 10
-4.55466686147159
 20
49.05264861795627
 30
0.0
  0
VERTEX
  5
1C6
  8
DIMENSIONI
 10
-4.562041492740026
 20
48.91354463565538
 30
0.0
  0
VERTEX
  5
1C7
  8
DIMENSIONI
 10
-4.549043705129407
 20
48.73277398668783
 30
0.0
  0
VERTEX
  5
1C8
  8
DIMENSIONI
 10
-4.510050342297548
 20
48.5709930132365
 30
0.0
  0
VERTEX
  5
1C9
  8
DIMENSIONI
 10
-4.480805320173655
 20
48.49722365482943
 30
0.0
  0
VERTEX
  5
1CA
  8
DIMENSIONI
 10
-4.445061404244451
 20
48.4282017153014
 30
0.0
  0
VERTEX
  5
1CB
  8
DIMENSIONI
 10
-4.402818594509938
 20
48.36392719465243
 30
0.0
  0
VERTEX
  5
1CC
  8
DIMENSIONI
 10
-4.354076890970115
 20
48.30440009288252
 30
0.0
  0
VERTEX
  5
1CD
  8
DIMENSIONI
 10
-4.300311219878669
 20
48.25081878757279
 30
0.0
  0
VERTEX
  5
1CE
  8
DIMENSIONI
 10
-4.242996507489289
 20
48.20438165630435
 30
0.0
  0
VERTEX
  5
1CF
  8
DIMENSIONI
 10
-4.182132753801973
 20
48.16508869907721
 30
0.0
  0
VERTEX
  5
1D0
  8
DIMENSIONI
 10
-4.117719958816722
 20
48.13293991589137
 30
0.0
  0
VERTEX
  5
1D1
  8
DIMENSIONI
 10
-4.049758122533536
 20
48.10793530674682
 30
0.0
  0
VERTEX
  5
1D2
  8
DIMENSIONI
 10
-3.978247244952415
 20
48.09007487164358
 30
0.0
  0
VERTEX
  5
1D3
  8
DIMENSIONI
 10
-3.824578365896368
 20
48.07578652356099
 30
0.0
  0
VERTEX
  5
1D4
  8
DIMENSIONI
 10
-3.673214059111707
 20
48.08703283624536
 30
0.0
  0
VERTEX
  5
1D5
  8
DIMENSIONI
 10
-3.537705209554185
 20
48.12077177429845
 30
0.0
  0
VERTEX
  5
1D6
  8
DIMENSIONI
 10
-3.418051817223802
 20
48.17700333772028
 30
0.0
  0
VERTEX
  5
1D7
  8
DIMENSIONI
 10
-3.314253882120557
 20
48.25572752651084
 30
0.0
  0
VERTEX
  5
1D8
  8
DIMENSIONI
 10
-3.230367451442091
 20
48.35049153831025
 30
0.0
  0
VERTEX
  5
1D9
  8
DIMENSIONI
 10
-3.170448572386044
 20
48.45484257075863
 30
0.0
  0
VERTEX
  5
1DA
  8
DIMENSIONI
 10
-3.134497244952415
 20
48.56878062385597
 30
0.0
  0
VERTEX
  5
1DB
  8
DIMENSIONI
 10
-3.122513469141206
 20
48.69230569760229
 30
0.0
  0
VERTEX
  5
1DC
  8
DIMENSIONI
 10
-3.12951936884622
 20
48.7957349011421
 30
0.0
  0
VERTEX
  5
1DD
  8
DIMENSIONI
 10
-3.150537067961265
 20
48.8936331312306
 30
0.0
  0
VERTEX
  5
1DE
  8
DIMENSIONI
 10
-3.185566566486338
 20
48.98600038786777
 30
0.0
  0
VERTEX
  5
1DF
  8
DIMENSIONI
 10
-3.234607864421442
 20
49.07283667105362
 30
0.0
  0
VERTEX
  5
1E0
  8
DIMENSIONI
 10
-3.366060666781324
 20
49.24116262975568
 30
0.0
  0
VERTEX
  5
1E1
  8
DIMENSIONI
 10
-3.550979545837371
 20
49.43345614008016
 30
0.0
  0
VERTEX
  5
1E2
  8
DIMENSIONI
 10
-3.789364501589583
 20
49.64971720202706
 30
0.0
  0
SEQEND
  5
A56
  8
DIMENSIONI
  0
POLYLINE
  5
90
  8
DIMENSIONI
 66
     1
 10
0.0
 20
0.0
 30
0.0
 70
     1
  0
VERTEX
  5
1E3
  8
DIMENSIONI
 10
-2.140212584185454
 20
49.96369212828075
 30
0.0
  0
VERTEX
  5
1E4
  8
DIMENSIONI
 10
-2.127306979465689
 20
50.29398342621586
 30
0.0
  0
VERTEX
  5
1E5
  8
DIMENSIONI
 10
-2.088590165306397
 20
50.60049153831025
 30
0.0
  0
VERTEX
  5
1E6
  8
DIMENSIONI
 10
-2.059552554686928
 20
50.74482689966717
 30
0.0
  0
VERTEX
  5
1E7
  8
DIMENSIONI
 10
-2.024062141707577
 20
50.88321646456394
 30
0.0
  0
VERTEX
  5
1E8
  8
DIMENSIONI
 10
-1.982118926368345
 20
51.01566023300051
 30
0.0
  0
VERTEX
  5
1E9
  8
DIMENSIONI
 10
-1.933722908669229
 20
51.14215820497692
 30
0.0
  0
VERTEX
  5
1EA
  8
DIMENSIONI
 10
-1.821997244952415
 20
51.37344507813326
 30
0.0
  0
VERTEX
  5
1EB
  8
DIMENSIONI
 10
-1.759773793624982
 20
51.47726605895922
 30
0.0
  0
VERTEX
  5
1EC
  8
DIMENSIONI
 10
-1.693309929318197
 20
51.57320540261703
 30
0.0
  0
VERTEX
  5
1ED
  8
DIMENSIONI
 10
-1.622605652032061
 20
51.66126310910671
 30
0.0
  0
VERTEX
  5
1EE
  8
DIMENSIONI
 10
-1.547660961766574
 20
51.74143917842825
 30
0.0
  0
VERTEX
  5
1EF
  8
DIMENSIONI
 10
-1.468475858521737
 20
51.81373361058164
 30
0.0
  0
VERTEX
  5
1F0
  8
DIMENSIONI
 10
-1.385050342297548
 20
51.87814640556689
 30
0.0
  0
VERTEX
  5
1F1
  8
DIMENSIONI
 10
-1.251200784775424
 20
51.96203283624536
 30
0.0
  0
VERTEX
  5
1F2
  8
DIMENSIONI
 10
-1.115138837872769
 20
52.02195171530141
 30
0.0
  0
VERTEX
  5
1F3
  8
DIMENSIONI
 10
-0.9768645015895835
 20
52.05790304273503
 30
0.0
  0
VERTEX
  5
1F4
  8
DIMENSIONI
 10
-0.8363777759258666
 20
52.06988681854624
 30
0.0
  0
VERTEX
  5
1F5
  8
DIMENSIONI
 10
-0.7228084543919433
 20
52.06255827872323
 30
0.0
  0
VERTEX
  5
1F6
  8
DIMENSIONI
 10
-0.6121889853653946
 20
52.0405726592542
 30
0.0
  0
VERTEX
  5
1F7
  8
DIMENSIONI
 10
-0.5045193688462204
 20
52.00392996013916
 30
0.0
  0
VERTEX
  5
1F8
  8
DIMENSIONI
 10
-0.3997996048344211
 20
51.9526301813781
 30
0.0
  0
VERTEX
  5
1F9
  8
DIMENSIONI
 10
-0.2980296933299963
 20
51.88667332297102
 30
0.0
  0
VERTEX
  5
1FA
  8
DIMENSIONI
 10
-0.1992096343329462
 20
51.80605938491792
 30
0.0
  0
VERTEX
  5
1FB
  8
DIMENSIONI
 10
-0.1033394278432707
 20
51.71078836721881
 30
0.0
  0
VERTEX
  5
1FC
  8
DIMENSIONI
 10
-0.01041907386097
 20
51.60086026987367
 30
0.0
  0
VERTEX
  5
1FD
  8
DIMENSIONI
 10
0.0967435367584992
 20
51.44912723152559
 30
0.0
  0
VERTEX
  5
1FE
  8
DIMENSIONI
 10
0.1896177992953724
 20
51.28448858845775
 30
0.0
  0
VERTEX
  5
1FF
  8
DIMENSIONI
 10
0.2682037137496497
 20
51.10694434067014
 30
0.0
  0
VERTEX
  5
200
  8
DIMENSIONI
 10
0.3325012801213312
 20
50.91649448816276
 30
0.0
  0
VERTEX
  5
201
  8
DIMENSIONI
 10
0.3825104984104168
 20
50.71313903093562
 30
0.0
  0
VERTEX
  5
202
  8
DIMENSIONI
 10
0.4182313686169065
 20
50.49687796898872
 30
0.0
  0
VERTEX
  5
203
  8
DIMENSIONI
 10
0.4396638907408003
 20
50.26771130232205
 30
0.0
  0
VERTEX
  5
204
  8
DIMENSIONI
 10
0.4468080647820982
 20
50.02563903093561
 30
0.0
  0
VERTEX
  5
205
  8
DIMENSIONI
 10
0.434271191625756
 20
49.69064640556688
 30
0.0
  0
VERTEX
  5
206
  8
DIMENSIONI
 10
0.3966605721567294
 20
49.3818337212011
 30
0.0
  0
VERTEX
  5
207
  8
DIMENSIONI
 10
0.3684526075549595
 20
49.23724485689432
 30
0.0
  0
VERTEX
  5
208
  8
DIMENSIONI
 10
0.3339762063750184
 20
49.09920097783827
 30
0.0
  0
VERTEX
  5
209
  8
DIMENSIONI
 10
0.2932313686169063
 20
48.96770208403296
 30
0.0
  0
VERTEX
  5
20A
  8
DIMENSIONI
 10
0.2462180942806231
 20
48.84274817547839
 30
0.0
  0
VERTEX
  5
20B
  8
DIMENSIONI
 10
0.1390093922157264
 20
48.61607044686482
 30
0.0
  0
VERTEX
  5
20C
  8
DIMENSIONI
 10
0.0179732565225111
 20
48.42276292474093
 30
0.0
  0
VERTEX
  5
20D
  8
DIMENSIONI
 10
-0.047730098934716
 20
48.33862299111262
 30
0.0
  0
VERTEX
  5
20E
  8
DIMENSIONI
 10
-0.1168903127990228
 20
48.26282560910671
 30
0.0
  0
VERTEX
  5
20F
  8
DIMENSIONI
 10
-0.1895073850704093
 20
48.19537077872322
 30
0.0
  0
VERTEX
  5
210
  8
DIMENSIONI
 10
-0.2655813157488756
 20
48.13625849996217
 30
0.0
  0
VERTEX
  5
211
  8
DIMENSIONI
 10
-0.4198032921500554
 20
48.04011174479992
 30
0.0
  0
VERTEX
  5
212
  8
DIMENSIONI
 10
-0.5712597818255716
 20
47.9714354911126
 30
0.0
  0
VERTEX
  5
213
  8
DIMENSIONI
 10
-0.7199507847754241
 20
47.93022973890022
 30
0.0
  0
VERTEX
  5
214
  8
DIMENSIONI
 10
-0.8658763009996129
 20
47.91649448816275
 30
0.0
  0
VERTEX
  5
215
  8
DIMENSIONI
 10
-1.00594820365448
 20
47.92704942916571
 30
0.0
  0
VERTEX
  5
216
  8
DIMENSIONI
 10
-1.140028218403743
 20
47.95871425217455
 30
0.0
  0
VERTEX
  5
217
  8
DIMENSIONI
 10
-1.2681163452474
 20
48.0114889571893
 30
0.0
  0
VERTEX
  5
218
  8
DIMENSIONI
 10
-1.390212584185454
 20
48.08537354420995
 30
0.0
  0
VERTEX
  5
219
  8
DIMENSIONI
 10
-1.506316935217902
 20
48.1803680132365
 30
0.0
  0
VERTEX
  5
21A
  8
DIMENSIONI
 10
-1.616429398344746
 20
48.29647236426895
 30
0.0
  0
VERTEX
  5
21B
  8
DIMENSIONI
 10
-1.720549973565985
 20
48.4336865973073
 30
0.0
  0
VERTEX
  5
21C
  8
DIMENSIONI
 10
-1.818678660881619
 20
48.59201071235155
 30
0.0
  0
VERTEX
  5
21D
  8
DIMENSIONI
 10
-1.894038174155955
 20
48.73798232002116
 30
0.0
  0
VERTEX
  5
21E
  8
DIMENSIONI
 10
-1.959349752327046
 20
48.89123637606836
 30
0.0
  0
VERTEX
  5
21F
  8
DIMENSIONI
 10
-2.014613395394893
 20
49.05177288049314
 30
0.0
  0
VERTEX
  5
220
  8
DIMENSIONI
 10
-2.059829103359495
 20
49.2195918332955
 30
0.0
  0
VERTEX
  5
221
  8
DIMENSIONI
 10
-2.094996876220852
 20
49.39469323447544
 30
0.0
  0
VERTEX
  5
222
  8
DIMENSIONI
 10
-2.120116713978964
 20
49.57707708403296
 30
0.0
  0
VERTEX
  5
223
  8
DIMENSIONI
 10
-2.135188616633831
 20
49.76674338196807
 30
0.0
  0
SEQEND
  5
A57
  8
DIMENSIONI
  0
POLYLINE
  5
91
  8
DIMENSIONI
 66
     1
 10
0.0
 20
0.0
 30
0.0
 70
     1
  0
VERTEX
  5
224
  8
DIMENSIONI
 10
-1.562041492740026
 20
49.88994581559638
 30
0.0
  0
VERTEX
  5
225
  8
DIMENSIONI
 10
-1.549320253801973
 20
49.49595614008017
 30
0.0
  0
VERTEX
  5
226
  8
DIMENSIONI
 10
-1.511156536987813
 20
49.13994581559639
 30
0.0
  0
VERTEX
  5
227
  8
DIMENSIONI
 10
-1.482533749377194
 20
48.97618290999166
 30
0.0
  0
VERTEX
  5
228
  8
DIMENSIONI
 10
-1.447550342297548
 20
48.82191484214506
 30
0.0
  0
VERTEX
  5
229
  8
DIMENSIONI
 10
-1.406206315748875
 20
48.67714161205656
 30
0.0
  0
VERTEX
  5
22A
  8
DIMENSIONI
 10
-1.358501669731176
 20
48.54186321972618
 30
0.0
  0
VERTEX
  5
22B
  8
DIMENSIONI
 10
-1.313885150557135
 20
48.43884883919522
 30
0.0
  0
VERTEX
  5
22C
  8
DIMENSIONI
 10
-1.264106389495188
 20
48.3495697094017
 30
0.0
  0
VERTEX
  5
22D
  8
DIMENSIONI
 10
-1.209165386545336
 20
48.27402583034565
 30
0.0
  0
VERTEX
  5
22E
  8
DIMENSIONI
 10
-1.149062141707577
 20
48.21221720202706
 30
0.0
  0
VERTEX
  5
22F
  8
DIMENSIONI
 10
-1.083796654981914
 20
48.16414382444594
 30
0.0
  0
VERTEX
  5
230
  8
DIMENSIONI
 10
-1.013368926368345
 20
48.12980569760228
 30
0.0
  0
VERTEX
  5
231
  8
DIMENSIONI
 10
-0.9377789558668697
 20
48.10920282149609
 30
0.0
  0
VERTEX
  5
232
  8
DIMENSIONI
 10
-0.857026743477489
 20
48.10233519612736
 30
0.0
  0
VERTEX
  5
233
  8
DIMENSIONI
 10
-0.7766432626515303
 20
48.11127693654034
 30
0.0
  0
VERTEX
  5
234
  8
DIMENSIONI
 10
-0.6947848555718843
 20
48.13810215777927
 30
0.0
  0
VERTEX
  5
235
  8
DIMENSIONI
 10
-0.6114515222385509
 20
48.18281085984417
 30
0.0
  0
VERTEX
  5
236
  8
DIMENSIONI
 10
-0.5266432626515303
 20
48.24540304273503
 30
0.0
  0
VERTEX
  5
237
  8
DIMENSIONI
 10
-0.4462597818255715
 20
48.32901292474093
 30
0.0
  0
VERTEX
  5
238
  8
DIMENSIONI
 10
-0.376200784775424
 20
48.43677472415096
 30
0.0
  0
VERTEX
  5
239
  8
DIMENSIONI
 10
-0.3164662715010877
 20
48.56868844096512
 30
0.0
  0
VERTEX
  5
23A
  8
DIMENSIONI
 10
-0.2670562420025626
 20
48.72475407518341
 30
0.0
  0
VERTEX
  5
23B
  8
DIMENSIONI
 10
-0.2076904602916483
 20
49.00443696603887
 30
0.0
  0
VERTEX
  5
23C
  8
DIMENSIONI
 10
-0.165286330498138
 20
49.3361110073368
 30
0.0
  0
VERTEX
  5
23D
  8
DIMENSIONI
 10
-0.1398438526220318
 20
49.71977619907721
 30
0.0
  0
VERTEX
  5
23E
  8
DIMENSIONI
 10
-0.1313630266633297
 20
50.1554325412601
 30
0.0
  0
VERTEX
  5
23F
  8
DIMENSIONI
 10
-0.1402125841854536
 20
50.48341926692382
 30
0.0
  0
VERTEX
  5
240
  8
DIMENSIONI
 10
-0.1667612567518253
 20
50.78301366220406
 30
0.0
  0
VERTEX
  5
241
  8
DIMENSIONI
 10
-0.2110090443624449
 20
51.05421572710081
 30
0.0
  0
VERTEX
  5
242
  8
DIMENSIONI
 10
-0.2729559470173122
 20
51.29702546161408
 30
0.0
  0
VERTEX
  5
243
  8
DIMENSIONI
 10
-0.3299249735659845
 20
51.45428947341349
 30
0.0
  0
VERTEX
  5
244
  8
DIMENSIONI
 10
-0.3946373629465155
 20
51.58684847046364
 30
0.0
  0
VERTEX
  5
245
  8
DIMENSIONI
 10
-0.4670931151589048
 20
51.69470245276452
 30
0.0
  0
VERTEX
  5
246
  8
DIMENSIONI
 10
-0.5472922302031527
 20
51.77785142031615
 30
0.0
  0
VERTEX
  5
247
  8
DIMENSIONI
 10
-0.6108984248934182
 20
51.82043991589137
 30
0.0
  0
VERTEX
  5
248
  8
DIMENSIONI
 10
-0.6807730561618548
 20
51.85086026987367
 30
0.0
  0
VERTEX
  5
249
  8
DIMENSIONI
 10
-0.7569161240084624
 20
51.86911248226305
 30
0.0
  0
VERTEX
  5
24A
  8
DIMENSIONI
 10
-0.8393276284332412
 20
51.87519655305951
 30
0.0
  0
VERTEX
  5
24B
  8
DIMENSIONI
 10
-0.9368571269583148
 20
51.86395024037515
 30
0.0
  0
VERTEX
  5
24C
  8
DIMENSIONI
 10
-1.028855652032061
 20
51.83021130232205
 30
0.0
  0
VERTEX
  5
24D
  8
DIMENSIONI
 10
-1.11532320365448
 20
51.77397973890022
 30
0.0
  0
VERTEX
  5
24E
  8
DIMENSIONI
 10
-1.196259781825572
 20
51.69525555010966
 30
0.0
  0
VERTEX
  5
24F
  8
DIMENSIONI
 10
-1.247236920468639
 20
51.629667423266
 30
0.0
  0
VERTEX
  5
250
  8
DIMENSIONI
 10
-1.293973646132356
 20
51.55532192179108
 30
0.0
  0
VERTEX
  5
251
  8
DIMENSIONI
 10
-1.336469958816722
 20
51.47221904568488
 30
0.0
  0
VERTEX
  5
252
  8
DIMENSIONI
 10
-1.374725858521737
 20
51.38035879494742
 30
0.0
  0
VERTEX
  5
253
  8
DIMENSIONI
 10
-1.438516418993713
 20
51.17036616957868
 30
0.0
  0
VERTEX
  5
254
  8
DIMENSIONI
 10
-1.485345327548286
 20
50.92534404568488
 30
0.0
  0
VERTEX
  5
255
  8
DIMENSIONI
 10
-1.518899899819672
 20
50.66372900143709
 30
0.0
  0
VERTEX
  5
256
  8
DIMENSIONI
 10
-1.542867451442091
 20
50.40395761500642
 30
0.0
  0
VERTEX
  5
257
  8
DIMENSIONI
 10
-1.557247982415542
 20
50.14602988639284
 30
0.0
  0
SEQEND
  5
A58
  8
DIMENSIONI
  0
POLYLINE
  5
92
  8
DIMENSIONI
 66
     1
 10
0.0
 20
0.0
 30
0.0
 70
     1
  0
VERTEX
  5
258
  8
DIMENSIONI
 10
1.417309539708351
 20
48.55956233477043
 30
0.0
  0
VERTEX
  5
259
  8
DIMENSIONI
 10
1.483865586905992
 20
48.55357044686482
 30
0.0
  0
VERTEX
  5
25A
  8
DIMENSIONI
 10
1.544890660652304
 20
48.53559478314801
 30
0.0
  0
VERTEX
  5
25B
  8
DIMENSIONI
 10
1.600384760947289
 20
48.50563534361998
 30
0.0
  0
VERTEX
  5
25C
  8
DIMENSIONI
 10
1.650347887790947
 20
48.46369212828075
 30
0.0
  0
VERTEX
  5
25D
  8
DIMENSIONI
 10
1.691645822894192
 20
48.41326808698281
 30
0.0
  0
VERTEX
  5
25E
  8
DIMENSIONI
 10
1.721144347967938
 20
48.35786616957868
 30
0.0
  0
VERTEX
  5
25F
  8
DIMENSIONI
 10
1.738843463012186
 20
48.29748637606836
 30
0.0
  0
VERTEX
  5
260
  8
DIMENSIONI
 10
1.744743168026935
 20
48.23212870645185
 30
0.0
  0
VERTEX
  5
261
  8
DIMENSIONI
 10
1.738751280121331
 20
48.16677103683533
 30
0.0
  0
VERTEX
  5
262
  8
DIMENSIONI
 10
1.720775616404516
 20
48.106391243325
 30
0.0
  0
VERTEX
  5
263
  8
DIMENSIONI
 10
1.690816176876493
 20
48.05098932592087
 30
0.0
  0
VERTEX
  5
264
  8
DIMENSIONI
 10
1.64887296153726
 20
48.00056528462294
 30
0.0
  0
VERTEX
  5
265
  8
DIMENSIONI
 10
1.598448920239325
 20
47.9586220692837
 30
0.0
  0
VERTEX
  5
266
  8
DIMENSIONI
 10
1.543047002835195
 20
47.92866262975568
 30
0.0
  0
VERTEX
  5
267
  8
DIMENSIONI
 10
1.482667209324871
 20
47.91068696603887
 30
0.0
  0
VERTEX
  5
268
  8
DIMENSIONI
 10
1.417309539708351
 20
47.90469507813326
 30
0.0
  0
VERTEX
  5
269
  8
DIMENSIONI
 10
1.351951870091832
 20
47.91068696603887
 30
0.0
  0
VERTEX
  5
26A
  8
DIMENSIONI
 10
1.291572076581507
 20
47.92866262975568
 30
0.0
  0
VERTEX
  5
26B
  8
DIMENSIONI
 10
1.236170159177378
 20
47.9586220692837
 30
0.0
  0
VERTEX
  5
26C
  8
DIMENSIONI
 10
1.185746117879443
 20
48.00056528462294
 30
0.0
  0
VERTEX
  5
26D
  8
DIMENSIONI
 10
1.14380290254021
 20
48.05098932592087
 30
0.0
  0
VERTEX
  5
26E
  8
DIMENSIONI
 10
1.113843463012186
 20
48.106391243325
 30
0.0
  0
VERTEX
  5
26F
  8
DIMENSIONI
 10
1.095867799295372
 20
48.16677103683533
 30
0.0
  0
VERTEX
  5
270
  8
DIMENSIONI
 10
1.089875911389767
 20
48.23212870645185
 30
0.0
  0
VERTEX
  5
271
  8
DIMENSIONI
 10
1.095867799295372
 20
48.29868475364948
 30
0.0
  0
VERTEX
  5
272
  8
DIMENSIONI
 10
1.113843463012186
 20
48.35970982739579
 30
0.0
  0
VERTEX
  5
273
  8
DIMENSIONI
 10
1.14380290254021
 20
48.41520392769078
 30
0.0
  0
VERTEX
  5
274
  8
DIMENSIONI
 10
1.185746117879443
 20
48.46516705453444
 30
0.0
  0
VERTEX
  5
275
  8
DIMENSIONI
 10
1.236170159177378
 20
48.50646498963769
 30
0.0
  0
VERTEX
  5
276
  8
DIMENSIONI
 10
1.291572076581507
 20
48.53596351471143
 30
0.0
  0
VERTEX
  5
277
  8
DIMENSIONI
 10
1.351951870091832
 20
48.55366262975568
 30
0.0
  0
SEQEND
  5
A59
  8
DIMENSIONI
  0
POLYLINE
  5
93
  8
DIMENSIONI
 66
     1
 10
0.0
 20
0.0
 30
0.0
 70
     1
  0
VERTEX
  5
278
  8
DIMENSIONI
 10
2.390760867141979
 20
49.96369212828075
 30
0.0
  0
VERTEX
  5
279
  8
DIMENSIONI
 10
2.403666471861743
 20
50.29398342621586
 30
0.0
  0
VERTEX
  5
27A
  8
DIMENSIONI
 10
2.442383286021035
 20
50.60049153831025
 30
0.0
  0
VERTEX
  5
27B
  8
DIMENSIONI
 10
2.471420896640504
 20
50.74482689966717
 30
0.0
  0
VERTEX
  5
27C
  8
DIMENSIONI
 10
2.506911309619856
 20
50.88321646456394
 30
0.0
  0
VERTEX
  5
27D
  8
DIMENSIONI
 10
2.548854524959088
 20
51.01566023300051
 30
0.0
  0
VERTEX
  5
27E
  8
DIMENSIONI
 10
2.597250542658204
 20
51.14215820497692
 30
0.0
  0
VERTEX
  5
27F
  8
DIMENSIONI
 10
2.708976206375017
 20
51.37344507813326
 30
0.0
  0
VERTEX
  5
280
  8
DIMENSIONI
 10
2.771199657702451
 20
51.47726605895922
 30
0.0
  0
VERTEX
  5
281
  8
DIMENSIONI
 10
2.837663522009236
 20
51.57320540261703
 30
0.0
  0
VERTEX
  5
282
  8
DIMENSIONI
 10
2.908367799295371
 20
51.66126310910671
 30
0.0
  0
VERTEX
  5
283
  8
DIMENSIONI
 10
2.983312489560858
 20
51.74143917842825
 30
0.0
  0
VERTEX
  5
284
  8
DIMENSIONI
 10
3.062497592805696
 20
51.81373361058164
 30
0.0
  0
VERTEX
  5
285
  8
DIMENSIONI
 10
3.145923109029884
 20
51.87814640556689
 30
0.0
  0
VERTEX
  5
286
  8
DIMENSIONI
 10
3.279772666552009
 20
51.96203283624536
 30
0.0
  0
VERTEX
  5
287
  8
DIMENSIONI
 10
3.415834613454663
 20
52.02195171530141
 30
0.0
  0
VERTEX
  5
288
  8
DIMENSIONI
 10
3.55410894973785
 20
52.05790304273503
 30
0.0
  0
VERTEX
  5
289
  8
DIMENSIONI
 10
3.694595675401566
 20
52.06988681854624
 30
0.0
  0
VERTEX
  5
28A
  8
DIMENSIONI
 10
3.808164996935489
 20
52.06255827872323
 30
0.0
  0
VERTEX
  5
28B
  8
DIMENSIONI
 10
3.918784465962038
 20
52.0405726592542
 30
0.0
  0
VERTEX
  5
28C
  8
DIMENSIONI
 10
4.026454082481211
 20
52.00392996013916
 30
0.0
  0
VERTEX
  5
28D
  8
DIMENSIONI
 10
4.131173846493011
 20
51.9526301813781
 30
0.0
  0
VERTEX
  5
28E
  8
DIMENSIONI
 10
4.232943757997436
 20
51.88667332297102
 30
0.0
  0
VERTEX
  5
28F
  8
DIMENSIONI
 10
4.331763816994486
 20
51.80605938491792
 30
0.0
  0
VERTEX
  5
290
  8
DIMENSIONI
 10
4.427634023484162
 20
51.71078836721881
 30
0.0
  0
VERTEX
  5
291
  8
DIMENSIONI
 10
4.520554377466462
 20
51.60086026987367
 30
0.0
  0
VERTEX
  5
292
  8
DIMENSIONI
 10
4.627716988085932
 20
51.44912723152559
 30
0.0
  0
VERTEX
  5
293
  8
DIMENSIONI
 10
4.720591250622805
 20
51.28448858845775
 30
0.0
  0
VERTEX
  5
294
  8
DIMENSIONI
 10
4.799177165077082
 20
51.10694434067014
 30
0.0
  0
VERTEX
  5
295
  8
DIMENSIONI
 10
4.863474731448763
 20
50.91649448816276
 30
0.0
  0
VERTEX
  5
296
  8
DIMENSIONI
 10
4.913483949737849
 20
50.71313903093562
 30
0.0
  0
VERTEX
  5
297
  8
DIMENSIONI
 10
4.949204819944338
 20
50.49687796898872
 30
0.0
  0
VERTEX
  5
298
  8
DIMENSIONI
 10
4.970637342068232
 20
50.26771130232205
 30
0.0
  0
VERTEX
  5
299
  8
DIMENSIONI
 10
4.97778151610953
 20
50.02563903093561
 30
0.0
  0
VERTEX
  5
29A
  8
DIMENSIONI
 10
4.965244642953189
 20
49.69064640556688
 30
0.0
  0
VERTEX
  5
29B
  8
DIMENSIONI
 10
4.927634023484162
 20
49.3818337212011
 30
0.0
  0
VERTEX
  5
29C
  8
DIMENSIONI
 10
4.899426058882392
 20
49.23724485689432
 30
0.0
  0
VERTEX
  5
29D
  8
DIMENSIONI
 10
4.864949657702451
 20
49.09920097783827
 30
0.0
  0
VERTEX
  5
29E
  8
DIMENSIONI
 10
4.824204819944339
 20
48.96770208403296
 30
0.0
  0
VERTEX
  5
29F
  8
DIMENSIONI
 10
4.777191545608056
 20
48.84274817547839
 30
0.0
  0
VERTEX
  5
2A0
  8
DIMENSIONI
 10
4.66998284354316
 20
48.61607044686482
 30
0.0
  0
VERTEX
  5
2A1
  8
DIMENSIONI
 10
4.548946707849945
 20
48.42276292474093
 30
0.0
  0
VERTEX
  5
2A2
  8
DIMENSIONI
 10
4.483243352392718
 20
48.33862299111262
 30
0.0
  0
VERTEX
  5
2A3
  8
DIMENSIONI
 10
4.41408313852841
 20
48.26282560910671
 30
0.0
  0
VERTEX
  5
2A4
  8
DIMENSIONI
 10
4.341466066257023
 20
48.19537077872322
 30
0.0
  0
VERTEX
  5
2A5
  8
DIMENSIONI
 10
4.265392135578557
 20
48.13625849996217
 30
0.0
  0
VERTEX
  5
2A6
  8
DIMENSIONI
 10
4.111170159177377
 20
48.04011174479992
 30
0.0
  0
VERTEX
  5
2A7
  8
DIMENSIONI
 10
3.959713669501861
 20
47.9714354911126
 30
0.0
  0
VERTEX
  5
2A8
  8
DIMENSIONI
 10
3.811022666552009
 20
47.93022973890022
 30
0.0
  0
VERTEX
  5
2A9
  8
DIMENSIONI
 10
3.66509715032782
 20
47.91649448816275
 30
0.0
  0
VERTEX
  5
2AA
  8
DIMENSIONI
 10
3.525025247672952
 20
47.92704942916571
 30
0.0
  0
VERTEX
  5
2AB
  8
DIMENSIONI
 10
3.39094523292369
 20
47.95871425217455
 30
0.0
  0
VERTEX
  5
2AC
  8
DIMENSIONI
 10
3.262857106080032
 20
48.0114889571893
 30
0.0
  0
VERTEX
  5
2AD
  8
DIMENSIONI
 10
3.140760867141979
 20
48.08537354420995
 30
0.0
  0
VERTEX
  5
2AE
  8
DIMENSIONI
 10
3.02465651610953
 20
48.1803680132365
 30
0.0
  0
VERTEX
  5
2AF
  8
DIMENSIONI
 10
2.914544052982687
 20
48.29647236426895
 30
0.0
  0
VERTEX
  5
2B0
  8
DIMENSIONI
 10
2.810423477761447
 20
48.4336865973073
 30
0.0
  0
VERTEX
  5
2B1
  8
DIMENSIONI
 10
2.712294790445814
 20
48.59201071235155
 30
0.0
  0
VERTEX
  5
2B2
  8
DIMENSIONI
 10
2.636935277171477
 20
48.73798232002116
 30
0.0
  0
VERTEX
  5
2B3
  8
DIMENSIONI
 10
2.571623699000386
 20
48.89123637606836
 30
0.0
  0
VERTEX
  5
2B4
  8
DIMENSIONI
 10
2.51636005593254
 20
49.05177288049314
 30
0.0
  0
VERTEX
  5
2B5
  8
DIMENSIONI
 10
2.471144347967938
 20
49.2195918332955
 30
0.0
  0
VERTEX
  5
2B6
  8
DIMENSIONI
 10
2.43597657510658
 20
49.39469323447544
 30
0.0
  0
VERTEX
  5
2B7
  8
DIMENSIONI
 10
2.410856737348468
 20
49.57707708403296
 30
0.0
  0
VERTEX
  5
2B8
  8
DIMENSIONI
 10
2.395784834693601
 20
49.76674338196807
 30
0.0
  0
SEQEND
  5
A5A
  8
DIMENSIONI
  0
POLYLINE
  5
94
  8
DIMENSIONI
 66
     1
 10
0.0
 20
0.0
 30
0.0
 70
     1
  0
VERTEX
  5
2B9
  8
DIMENSIONI
 10
2.968931958587407
 20
49.88994581559638
 30
0.0
  0
VERTEX
  5
2BA
  8
DIMENSIONI
 10
2.98165319752546
 20
49.49595614008017
 30
0.0
  0
VERTEX
  5
2BB
  8
DIMENSIONI
 10
3.019816914339619
 20
49.13994581559639
 30
0.0
  0
VERTEX
  5
2BC
  8
DIMENSIONI
 10
3.048439701950239
 20
48.97618290999166
 30
0.0
  0
VERTEX
  5
2BD
  8
DIMENSIONI
 10
3.083423109029885
 20
48.82191484214506
 30
0.0
  0
VERTEX
  5
2BE
  8
DIMENSIONI
 10
3.124767135578557
 20
48.67714161205656
 30
0.0
  0
VERTEX
  5
2BF
  8
DIMENSIONI
 10
3.172471781596256
 20
48.54186321972618
 30
0.0
  0
VERTEX
  5
2C0
  8
DIMENSIONI
 10
3.217088300770298
 20
48.43884883919522
 30
0.0
  0
VERTEX
  5
2C1
  8
DIMENSIONI
 10
3.266867061832245
 20
48.3495697094017
 30
0.0
  0
VERTEX
  5
2C2
  8
DIMENSIONI
 10
3.321808064782097
 20
48.27402583034565
 30
0.0
  0
VERTEX
  5
2C3
  8
DIMENSIONI
 10
3.381911309619855
 20
48.21221720202706
 30
0.0
  0
VERTEX
  5
2C4
  8
DIMENSIONI
 10
3.447176796345519
 20
48.16414382444594
 30
0.0
  0
VERTEX
  5
2C5
  8
DIMENSIONI
 10
3.517604524959088
 20
48.12980569760228
 30
0.0
  0
VERTEX
  5
2C6
  8
DIMENSIONI
 10
3.593194495460563
 20
48.10920282149609
 30
0.0
  0
VERTEX
  5
2C7
  8
DIMENSIONI
 10
3.673946707849944
 20
48.10233519612736
 30
0.0
  0
VERTEX
  5
2C8
  8
DIMENSIONI
 10
3.754330188675902
 20
48.11127693654034
 30
0.0
  0
VERTEX
  5
2C9
  8
DIMENSIONI
 10
3.836188595755548
 20
48.13810215777927
 30
0.0
  0
VERTEX
  5
2CA
  8
DIMENSIONI
 10
3.919521929088882
 20
48.18281085984417
 30
0.0
  0
VERTEX
  5
2CB
  8
DIMENSIONI
 10
4.004330188675903
 20
48.24540304273503
 30
0.0
  0
VERTEX
  5
2CC
  8
DIMENSIONI
 10
4.084713669501862
 20
48.32901292474093
 30
0.0
  0
VERTEX
  5
2CD
  8
DIMENSIONI
 10
4.154772666552009
 20
48.43677472415096
 30
0.0
  0
VERTEX
  5
2CE
  8
DIMENSIONI
 10
4.214507179826345
 20
48.56868844096512
 30
0.0
  0
VERTEX
  5
2CF
  8
DIMENSIONI
 10
4.26391720932487
 20
48.72475407518341
 30
0.0
  0
VERTEX
  5
2D0
  8
DIMENSIONI
 10
4.323282991035784
 20
49.00443696603887
 30
0.0
  0
VERTEX
  5
2D1
  8
DIMENSIONI
 10
4.365687120829294
 20
49.3361110073368
 30
0.0
  0
VERTEX
  5
2D2
  8
DIMENSIONI
 10
4.391129598705401
 20
49.71977619907721
 30
0.0
  0
VERTEX
  5
2D3
  8
DIMENSIONI
 10
4.399610424664103
 20
50.1554325412601
 30
0.0
  0
VERTEX
  5
2D4
  8
DIMENSIONI
 10
4.390760867141979
 20
50.48341926692382
 30
0.0
  0
VERTEX
  5
2D5
  8
DIMENSIONI
 10
4.364212194575607
 20
50.78301366220406
 30
0.0
  0
VERTEX
  5
2D6
  8
DIMENSIONI
 10
4.319964406964989
 20
51.05421572710081
 30
0.0
  0
VERTEX
  5
2D7
  8
DIMENSIONI
 10
4.25801750431012
 20
51.29702546161408
 30
0.0
  0
VERTEX
  5
2D8
  8
DIMENSIONI
 10
4.201048477761448
 20
51.45428947341349
 30
0.0
  0
VERTEX
  5
2D9
  8
DIMENSIONI
 10
4.136336088380918
 20
51.58684847046364
 30
0.0
  0
VERTEX
  5
2DA
  8
DIMENSIONI
 10
4.063880336168529
 20
51.69470245276452
 30
0.0
  0
VERTEX
  5
2DB
  8
DIMENSIONI
 10
3.98368122112428
 20
51.77785142031615
 30
0.0
  0
VERTEX
  5
2DC
  8
DIMENSIONI
 10
3.920075026434014
 20
51.82043991589137
 30
0.0
  0
VERTEX
  5
2DD
  8
DIMENSIONI
 10
3.850200395165578
 20
51.85086026987367
 30
0.0
  0
VERTEX
  5
2DE
  8
DIMENSIONI
 10
3.77405732731897
 20
51.86911248226305
 30
0.0
  0
VERTEX
  5
2DF
  8
DIMENSIONI
 10
3.691645822894191
 20
51.87519655305951
 30
0.0
  0
VERTEX
  5
2E0
  8
DIMENSIONI
 10
3.594116324369118
 20
51.86395024037515
 30
0.0
  0
VERTEX
  5
2E1
  8
DIMENSIONI
 10
3.502117799295371
 20
51.83021130232205
 30
0.0
  0
VERTEX
  5
2E2
  8
DIMENSIONI
 10
3.415650247672953
 20
51.77397973890022
 30
0.0
  0
VERTEX
  5
2E3
  8
DIMENSIONI
 10
3.334713669501861
 20
51.69525555010966
 30
0.0
  0
VERTEX
  5
2E4
  8
DIMENSIONI
 10
3.283736530858793
 20
51.629667423266
 30
0.0
  0
VERTEX
  5
2E5
  8
DIMENSIONI
 10
3.236999805195076
 20
51.55532192179108
 30
0.0
  0
VERTEX
  5
2E6
  8
DIMENSIONI
 10
3.194503492510711
 20
51.47221904568488
 30
0.0
  0
VERTEX
  5
2E7
  8
DIMENSIONI
 10
3.156247592805696
 20
51.38035879494742
 30
0.0
  0
VERTEX
  5
2E8
  8
DIMENSIONI
 10
3.092457032333719
 20
51.17036616957868
 30
0.0
  0
VERTEX
  5
2E9
  8
DIMENSIONI
 10
3.045628123779147
 20
50.92534404568488
 30
0.0
  0
VERTEX
  5
2EA
  8
DIMENSIONI
 10
3.012073551507761
 20
50.66372900143709
 30
0.0
  0
VERTEX
  5
2EB
  8
DIMENSIONI
 10
2.988105999885342
 20
50.40395761500642
 30
0.0
  0
VERTEX
  5
2EC
  8
DIMENSIONI
 10
2.973725468911891
 20
50.14602988639284
 30
0.0
  0
SEQEND
  5
A5B
  8
DIMENSIONI
  0
POLYLINE
  5
95
  8
DIMENSIONI
 66
     1
 10
0.0
 20
0.0
 30
0.0
  0
VERTEX
  5
2ED
  8
DIMENSIONI
 10
-36.78172759286218
 20
50.03041429987249
 30
0.0
  0
VERTEX
  5
2EE
  8
DIMENSIONI
 10
-5.51336892636834
 20
50.06398635652806
 30
0.0
  0
SEQEND
  5
A5C
  8
DIMENSIONI
  0
POLYLINE
  5
96
  8
DIMENSIONI
 66
     1
 10
0.0
 20
0.0
 30
0.0
  0
VERTEX
  5
2EF
  8
DIMENSIONI
 10
5.47778151610953
 20
50.07578728056441
 30
0.0
  0
VERTEX
  5
2F0
  8
DIMENSIONI
 10
36.74614018260337
 20
50.10935933721998
 30
0.0
  0
SEQEND
  5
A5D
  8
DIMENSIONI
  0
POLYLINE
  5
97
  8
DIMENSIONI
 66
     1
 10
0.0
 20
0.0
 30
0.0
  0
VERTEX
  5
2F1
  8
DIMENSIONI
 10
-40.00268418608593
 20
35.95422852629139
 30
0.0
  0
VERTEX
  5
2F2
  8
DIMENSIONI
 10
-40.01994105399815
 20
52.02693866364003
 30
0.0
  0
SEQEND
  5
A5E
  8
DIMENSIONI
  0
POLYLINE
  5
98
  8
DIMENSIONI
 66
     1
 10
0.0
 20
0.0
 30
0.0
  0
VERTEX
  5
2F3
  8
DIMENSIONI
 10
39.99731581391407
 20
36.04012253054955
 30
0.0
  0
VERTEX
  5
2F4
  8
DIMENSIONI
 10
39.98005894600185
 20
52.1128326678982
 30
0.0
  0
SEQEND
  5
A5F
  8
DIMENSIONI
  0
POLYLINE
  5
99
  8
DIMENSIONI
 66
     1
 10
0.0
 20
0.0
 30
0.0
  0
VERTEX
  5
2F5
  8
DIMENSIONI
 10
-40.01779370512941
 20
50.02693981641715
 30
0.0
  0
VERTEX
  5
2F6
  8
DIMENSIONI
 10
-36.78065391842781
 20
49.03041487626105
 30
0.0
  0
SEQEND
  5
A60
  8
DIMENSIONI
  0
POLYLINE
  5
9A
  8
DIMENSIONI
 66
     1
 10
0.0
 20
0.0
 30
0.0
  0
VERTEX
  5
2F7
  8
DIMENSIONI
 10
-36.78065391842781
 20
49.03041487626105
 30
0.0
  0
VERTEX
  5
2F8
  8
DIMENSIONI
 10
-36.78280126729656
 20
51.03041372348393
 30
0.0
  0
SEQEND
  5
A61
  8
DIMENSIONI
  0
POLYLINE
  5
9B
  8
DIMENSIONI
 66
     1
 10
0.0
 20
0.0
 30
0.0
  0
VERTEX
  5
2F9
  8
DIMENSIONI
 10
-36.78280126729656
 20
51.03041372348393
 30
0.0
  0
VERTEX
  5
2FA
  8
DIMENSIONI
 10
-40.01779370512941
 20
50.02693981641715
 30
0.0
  0
SEQEND
  5
A62
  8
DIMENSIONI
  0
POLYLINE
  5
9C
  8
DIMENSIONI
 66
     1
 10
0.0
 20
0.0
 30
0.0
  0
VERTEX
  5
2FB
  8
DIMENSIONI
 10
39.98220629487059
 20
50.11283382067532
 30
0.0
  0
VERTEX
  5
2FC
  8
DIMENSIONI
 10
36.745066508169
 20
51.10935876083143
 30
0.0
  0
SEQEND
  5
A63
  8
DIMENSIONI
  0
POLYLINE
  5
9D
  8
DIMENSIONI
 66
     1
 10
0.0
 20
0.0
 30
0.0
  0
VERTEX
  5
2FD
  8
DIMENSIONI
 10
36.745066508169
 20
51.10935876083143
 30
0.0
  0
VERTEX
  5
2FE
  8
DIMENSIONI
 10
36.74721385703774
 20
49.10935991360854
 30
0.0
  0
SEQEND
  5
A64
  8
DIMENSIONI
  0
POLYLINE
  5
9E
  8
DIMENSIONI
 66
     1
 10
0.0
 20
0.0
 30
0.0
  0
VERTEX
  5
2FF
  8
DIMENSIONI
 10
36.74721385703774
 20
49.10935991360854
 30
0.0
  0
VERTEX
  5
300
  8
DIMENSIONI
 10
39.98220629487059
 20
50.11283382067532
 30
0.0
  0
SEQEND
  5
A65
  8
DIMENSIONI
  0
POLYLINE
  5
9F
  8
DIMENSIONI
 66
     1
 10
0.0
 20
0.0
 30
0.0
 70
     1
  0
VERTEX
  5
301
  8
DIMENSIONI
 10
-2.600294985251264
 20
59.67155795883794
 30
0.0
  0
VERTEX
  5
302
  8
DIMENSIONI
 10
-2.600294985251264
 20
59.56241341606508
 30
0.0
  0
VERTEX
  5
303
  8
DIMENSIONI
 10
-2.78604351032501
 20
59.53835368155181
 30
0.0
  0
VERTEX
  5
304
  8
DIMENSIONI
 10
-2.953908554572798
 20
59.50452256060785
 30
0.0
  0
VERTEX
  5
305
  8
DIMENSIONI
 10
-3.103890117994626
 20
59.46092005323323
 30
0.0
  0
VERTEX
  5
306
  8
DIMENSIONI
 10
-3.235988200590497
 20
59.40754615942792
 30
0.0
  0
VERTEX
  5
307
  8
DIMENSIONI
 10
-3.358775811209965
 20
59.34163539246626
 30
0.0
  0
VERTEX
  5
308
  8
DIMENSIONI
 10
-3.48082595870259
 20
59.2604222656226
 30
0.0
  0
VERTEX
  5
309
  8
DIMENSIONI
 10
-3.602138643068373
 20
59.16390677889694
 30
0.0
  0
VERTEX
  5
30A
  8
DIMENSIONI
 10
-3.722713864307311
 20
59.05208893228927
 30
0.0
  0
VERTEX
  5
30B
  8
DIMENSIONI
 10
-3.837758112094921
 20
58.92920913877894
 30
0.0
  0
VERTEX
  5
30C
  8
DIMENSIONI
 10
-3.942477876106721
 20
58.79950781134531
 30
0.0
  0
VERTEX
  5
30D
  8
DIMENSIONI
 10
-4.036873156342709
 20
58.66298494998838
 30
0.0
  0
VERTEX
  5
30E
  8
DIMENSIONI
 10
-4.120943952802886
 20
58.51964055470815
 30
0.0
  0
VERTEX
  5
30F
  8
DIMENSIONI
 10
-4.196626106195216
 20
58.3659716756521
 30
0.0
  0
VERTEX
  5
310
  8
DIMENSIONI
 10
-4.265855457227666
 20
58.19847536296774
 30
0.0
  0
VERTEX
  5
311
  8
DIMENSIONI
 10
-4.328632005900232
 20
58.01715161665506
 30
0.0
  0
VERTEX
  5
312
  8
DIMENSIONI
 10
-4.384955752212916
 20
57.82200043671405
 30
0.0
  0
VERTEX
  5
313
  8
DIMENSIONI
 10
-4.278714970502001
 20
57.89044623317422
 30
0.0
  0
VERTEX
  5
314
  8
DIMENSIONI
 10
-4.172382005900231
 20
57.94976592343971
 30
0.0
  0
VERTEX
  5
315
  8
DIMENSIONI
 10
-4.065956858407606
 20
57.99995950751051
 30
0.0
  0
VERTEX
  5
316
  8
DIMENSIONI
 10
-3.959439528024125
 20
58.04102698538662
 30
0.0
  0
VERTEX
  5
317
  8
DIMENSIONI
 10
-3.852830014749788
 20
58.07296835706803
 30
0.0
  0
VERTEX
  5
318
  8
DIMENSIONI
 10
-3.746128318584597
 20
58.09578362255476
 30
0.0
  0
VERTEX
  5
319
  8
DIMENSIONI
 10
-3.639334439528549
 20
58.1094727818468
 30
0.0
  0
VERTEX
  5
31A
  8
DIMENSIONI
 10
-3.532448377581647
 20
58.11403583494414
 30
0.0
  0
VERTEX
  5
31B
  8
DIMENSIONI
 10
-3.431646386431205
 20
58.10887359305623
 30
0.0
  0
VERTEX
  5
31C
  8
DIMENSIONI
 10
-3.334255162242414
 20
58.09338686739252
 30
0.0
  0
VERTEX
  5
31D
  8
DIMENSIONI
 10
-3.240274705015276
 20
58.06757565795299
 30
0.0
  0
VERTEX
  5
31E
  8
DIMENSIONI
 10
-3.149705014749789
 20
58.03143996473765
 30
0.0
  0
VERTEX
  5
31F
  8
DIMENSIONI
 10
-3.062546091445954
 20
57.9849797877465
 30
0.0
  0
VERTEX
  5
320
  8
DIMENSIONI
 10
-2.978797935103771
 20
57.92819512697954
 30
0.0
  0
VERTEX
  5
321
  8
DIMENSIONI
 10
-2.89846054572324
 20
57.86108598243676
 30
0.0
  0
VERTEX
  5
322
  8
DIMENSIONI
 10
-2.821533923304361
 20
57.78365235411818
 30
0.0
  0
VERTEX
  5
323
  8
DIMENSIONI
 10
-2.751014011799936
 20
57.69810663140431
 30
0.0
  0
VERTEX
  5
324
  8
DIMENSIONI
 10
-2.689896755162768
 20
57.60666120367571
 30
0.0
  0
VERTEX
  5
325
  8
DIMENSIONI
 10
-2.638182153392856
 20
57.50931607093234
 30
0.0
  0
VERTEX
  5
326
  8
DIMENSIONI
 10
-2.595870206490202
 20
57.40607123317423
 30
0.0
  0
VERTEX
  5
327
  8
DIMENSIONI
 10
-2.562960914454803
 20
57.29692669040137
 30
0.0
  0
VERTEX
  5
328
  8
DIMENSIONI
 10
-2.539454277286662
 20
57.18188244261376
 30
0.0
  0
VERTEX
  5
329
  8
DIMENSIONI
 10
-2.525350294985777
 20
57.06093848981139
 30
0.0
  0
VERTEX
  5
32A
  8
DIMENSIONI
 10
-2.520648967552148
 20
56.93409483199429
 30
0.0
  0
VERTEX
  5
32B
  8
DIMENSIONI
 10
-2.525396386431205
 20
56.8101088437937
 30
0.0
  0
VERTEX
  5
32C
  8
DIMENSIONI
 10
-2.539638643068373
 20
56.68888834231877
 30
0.0
  0
VERTEX
  5
32D
  8
DIMENSIONI
 10
-2.563375737463653
 20
56.57043332756951
 30
0.0
  0
VERTEX
  5
32E
  8
DIMENSIONI
 10
-2.596607669617045
 20
56.45474379954591
 30
0.0
  0
VERTEX
  5
32F
  8
DIMENSIONI
 10
-2.63933443952855
 20
56.34181975824798
 30
0.0
  0
VERTEX
  5
330
  8
DIMENSIONI
 10
-2.691556047198167
 20
56.2316612036757
 30
0.0
  0
VERTEX
  5
331
  8
DIMENSIONI
 10
-2.753272492625896
 20
56.1242681358291
 30
0.0
  0
VERTEX
  5
332
  8
DIMENSIONI
 10
-2.824483775811736
 20
56.01964055470815
 30
0.0
  0
VERTEX
  5
333
  8
DIMENSIONI
 10
-2.919616519174568
 20
55.90210736886744
 30
0.0
  0
VERTEX
  5
334
  8
DIMENSIONI
 10
-3.022123893805836
 20
55.80024527447216
 30
0.0
  0
VERTEX
  5
335
  8
DIMENSIONI
 10
-3.132005899705541
 20
55.71405427152231
 30
0.0
  0
VERTEX
  5
336
  8
DIMENSIONI
 10
-3.249262536873682
 20
55.64353436001788
 30
0.0
  0
VERTEX
  5
337
  8
DIMENSIONI
 10
-3.373893805310261
 20
55.58868553995888
 30
0.0
  0
VERTEX
  5
338
  8
DIMENSIONI
 10
-3.505899705015275
 20
55.54950781134531
 30
0.0
  0
VERTEX
  5
339
  8
DIMENSIONI
 10
-3.645280235988727
 20
55.52600117417717
 30
0.0
  0
VERTEX
  5
33A
  8
DIMENSIONI
 10
-3.792035398230615
 20
55.51816562845446
 30
0.0
  0
VERTEX
  5
33B
  8
DIMENSIONI
 10
-3.892606932153919
 20
55.52240604143381
 30
0.0
  0
VERTEX
  5
33C
  8
DIMENSIONI
 10
-3.989306784661293
 20
55.53512728037187
 30
0.0
  0
VERTEX
  5
33D
  8
DIMENSIONI
 10
-4.082134955752739
 20
55.55632934526862
 30
0.0
  0
VERTEX
  5
33E
  8
DIMENSIONI
 10
-4.171091445428255
 20
55.58601223612408
 30
0.0
  0
VERTEX
  5
33F
  8
DIMENSIONI
 10
-4.256176253687842
 20
55.62417595293823
 30
0.0
  0
VERTEX
  5
340
  8
DIMENSIONI
 10
-4.3373893805315
 20
55.6708204957111
 30
0.0
  0
VERTEX
  5
341
  8
DIMENSIONI
 10
-4.414730825959229
 20
55.72594586444266
 30
0.0
  0
VERTEX
  5
342
  8
DIMENSIONI
 10
-4.488200589971028
 20
55.78955205913293
 30
0.0
  0
VERTEX
  5
343
  8
DIMENSIONI
 10
-4.619561209440054
 20
55.92644365205328
 30
0.0
  0
VERTEX
  5
344
  8
DIMENSIONI
 10
-4.733407079646544
 20
56.07310663140431
 30
0.0
  0
VERTEX
  5
345
  8
DIMENSIONI
 10
-4.829738200590497
 20
56.22954099718602
 30
0.0
  0
VERTEX
  5
346
  8
DIMENSIONI
 10
-4.908554572271913
 20
56.39574674939841
 30
0.0
  0
VERTEX
  5
347
  8
DIMENSIONI
 10
-4.969856194690792
 20
56.57172388804148
 30
0.0
  0
VERTEX
  5
348
  8
DIMENSIONI
 10
-5.013643067847134
 20
56.75747241311522
 30
0.0
  0
VERTEX
  5
349
  8
DIMENSIONI
 10
-5.039915191740939
 20
56.95299232461964
 30
0.0
  0
VERTEX
  5
34A
  8
DIMENSIONI
 10
-5.048672566372208
 20
57.15828362255476
 30
0.0
  0
VERTEX
  5
34B
  8
DIMENSIONI
 10
-5.035213864307311
 20
57.42340161665506
 30
0.0
  0
VERTEX
  5
34C
  8
DIMENSIONI
 10
-4.99483775811262
 20
57.68188244261376
 30
0.0
  0
VERTEX
  5
34D
  8
DIMENSIONI
 10
-4.927544247788136
 20
57.93372610043086
 30
0.0
  0
VERTEX
  5
34E
  8
DIMENSIONI
 10
-4.83333333333386
 20
58.17893259010638
 30
0.0
  0
VERTEX
  5
34F
  8
DIMENSIONI
 10
-4.714140855457753
 20
58.41399896178779
 30
0.0
  0
VERTEX
  5
350
  8
DIMENSIONI
 10
-4.571902654867783
 20
58.6354222656226
 30
0.0
  0
VERTEX
  5
351
  8
DIMENSIONI
 10
-4.406618731563947
 20
58.8432025016108
 30
0.0
  0
VERTEX
  5
352
  8
DIMENSIONI
 10
-4.218289085546249
 20
59.0373396697524
 30
0.0
  0
VERTEX
  5
353
  8
DIMENSIONI
 10
-4.020556784661293
 20
59.20935294408868
 30
0.0
  0
VERTEX
  5
354
  8
DIMENSIONI
 10
-3.827064896755688
 20
59.35076149866096
 30
0.0
  0
VERTEX
  5
355
  8
DIMENSIONI
 10
-3.637813421829435
 20
59.46156533346921
 30
0.0
  0
VERTEX
  5
356
  8
DIMENSIONI
 10
-3.452802359882532
 20
59.54176444851346
 30
0.0
  0
VERTEX
  5
357
  8
DIMENSIONI
 10
-3.27304572271439
 20
59.59854910928042
 30
0.0
  0
VERTEX
  5
358
  8
DIMENSIONI
 10
-3.09955752212442
 20
59.63910958125682
 30
0.0
  0
VERTEX
  5
359
  8
DIMENSIONI
 10
-2.932337758112621
 20
59.66344586444266
 30
0.0
  0
VERTEX
  5
35A
  8
DIMENSIONI
 10
-2.771386430678993
 20
59.67155795883794
 30
0.0
  0
SEQEND
  5
A66
  8
DIMENSIONI
  0
POLYLINE
  5
A0
  8
DIMENSIONI
 66
     1
 10
0.0
 20
0.0
 30
0.0
 70
     1
  0
VERTEX
  5
35B
  8
DIMENSIONI
 10
-4.435103244838285
 20
57.6066612036757
 30
0.0
  0
VERTEX
  5
35C
  8
DIMENSIONI
 10
-4.474926253687842
 20
57.24677919777599
 30
0.0
  0
VERTEX
  5
35D
  8
DIMENSIONI
 10
-4.488200589971028
 20
56.96359335706804
 30
0.0
  0
VERTEX
  5
35E
  8
DIMENSIONI
 10
-4.48165560472029
 20
56.81895840131583
 30
0.0
  0
VERTEX
  5
35F
  8
DIMENSIONI
 10
-4.462020648968077
 20
56.66823937476715
 30
0.0
  0
VERTEX
  5
360
  8
DIMENSIONI
 10
-4.42929572271439
 20
56.51143627742201
 30
0.0
  0
VERTEX
  5
361
  8
DIMENSIONI
 10
-4.383480825959229
 20
56.34854910928042
 30
0.0
  0
VERTEX
  5
362
  8
DIMENSIONI
 10
-4.324760324484302
 20
56.19119291459015
 30
0.0
  0
VERTEX
  5
363
  8
DIMENSIONI
 10
-4.253318584071322
 20
56.050982737599
 30
0.0
  0
VERTEX
  5
364
  8
DIMENSIONI
 10
-4.16915560472029
 20
55.92791857830697
 30
0.0
  0
VERTEX
  5
365
  8
DIMENSIONI
 10
-4.072271386431204
 20
55.82200043671405
 30
0.0
  0
VERTEX
  5
366
  8
DIMENSIONI
 10
-3.992994100295511
 20
55.76134409453115
 30
0.0
  0
VERTEX
  5
367
  8
DIMENSIONI
 10
-3.905604719764538
 20
55.71801813582909
 30
0.0
  0
VERTEX
  5
368
  8
DIMENSIONI
 10
-3.810103244838285
 20
55.69202256060785
 30
0.0
  0
VERTEX
  5
369
  8
DIMENSIONI
 10
-3.70648967551675
 20
55.68335736886744
 30
0.0
  0
VERTEX
  5
36A
  8
DIMENSIONI
 10
-3.643183075221765
 20
55.68713686739251
 30
0.0
  0
VERTEX
  5
36B
  8
DIMENSIONI
 10
-3.581581858407605
 20
55.69847536296773
 30
0.0
  0
VERTEX
  5
36C
  8
DIMENSIONI
 10
-3.521686025074272
 20
55.7173728555931
 30
0.0
  0
VERTEX
  5
36D
  8
DIMENSIONI
 10
-3.463495575221765
 20
55.74382934526862
 30
0.0
  0
VERTEX
  5
36E
  8
DIMENSIONI
 10
-3.352230825959228
 20
55.81941931577009
 30
0.0
  0
VERTEX
  5
36F
  8
DIMENSIONI
 10
-3.247787610619995
 20
55.92524527447216
 30
0.0
  0
VERTEX
  5
370
  8
DIMENSIONI
 10
-3.200428650443004
 20
55.98894365205328
 30
0.0
  0
VERTEX
  5
371
  8
DIMENSIONI
 10
-3.159384218289611
 20
56.05909483199429
 30
0.0
  0
VERTEX
  5
372
  8
DIMENSIONI
 10
-3.124654314159818
 20
56.13569881429517
 30
0.0
  0
VERTEX
  5
373
  8
DIMENSIONI
 10
-3.096238938053623
 20
56.21875559895594
 30
0.0
  0
VERTEX
  5
374
  8
DIMENSIONI
 10
-3.05835176991203
 20
56.40422757535711
 30
0.0
  0
VERTEX
  5
375
  8
DIMENSIONI
 10
-3.045722713864833
 20
56.61551076119783
 30
0.0
  0
VERTEX
  5
376
  8
DIMENSIONI
 10
-3.058259587021175
 20
56.85924232461966
 30
0.0
  0
VERTEX
  5
377
  8
DIMENSIONI
 10
-3.095870206490202
 20
57.08601223612408
 30
0.0
  0
VERTEX
  5
378
  8
DIMENSIONI
 10
-3.158554572271913
 20
57.29582049571111
 30
0.0
  0
VERTEX
  5
379
  8
DIMENSIONI
 10
-3.246312684366308
 20
57.48866710338072
 30
0.0
  0
VERTEX
  5
37A
  8
DIMENSIONI
 10
-3.299087389381057
 20
57.57508856355771
 30
0.0
  0
VERTEX
  5
37B
  8
DIMENSIONI
 10
-3.357116519174567
 20
57.64998716237777
 30
0.0
  0
VERTEX
  5
37C
  8
DIMENSIONI
 10
-3.420400073746839
 20
57.7133628998409
 30
0.0
  0
VERTEX
  5
37D
  8
DIMENSIONI
 10
-3.488938053097871
 20
57.76521577594709
 30
0.0
  0
VERTEX
  5
37E
  8
DIMENSIONI
 10
-3.562730457227665
 20
57.80554579069636
 30
0.0
  0
VERTEX
  5
37F
  8
DIMENSIONI
 10
-3.641777286136219
 20
57.83435294408868
 30
0.0
  0
VERTEX
  5
380
  8
DIMENSIONI
 10
-3.726078539823535
 20
57.85163723612408
 30
0.0
  0
VERTEX
  5
381
  8
DIMENSIONI
 10
-3.815634218289611
 20
57.85739866680255
 30
0.0
  0
VERTEX
  5
382
  8
DIMENSIONI
 10
-3.931784660767487
 20
57.84559925677305
 30
0.0
  0
VERTEX
  5
383
  8
DIMENSIONI
 10
-4.056047197640644
 20
57.81020102668455
 30
0.0
  0
VERTEX
  5
384
  8
DIMENSIONI
 10
-4.214970501475452
 20
57.73571725087334
 30
0.0
  0
SEQEND
  5
A67
  8
DIMENSIONI
  0
POLYLINE
  5
A1
  8
DIMENSIONI
 66
     1
 10
0.0
 20
0.0
 30
0.0
 70
     1
  0
VERTEX
  5
385
  8
DIMENSIONI
 10
-1.679941002950379
 20
59.58896208863145
 30
0.0
  0
VERTEX
  5
386
  8
DIMENSIONI
 10
0.4646017699109783
 20
59.58896208863145
 30
0.0
  0
VERTEX
  5
387
  8
DIMENSIONI
 10
0.4646017699109783
 20
59.47686769335122
 30
0.0
  0
VERTEX
  5
388
  8
DIMENSIONI
 10
-0.8687315634223551
 20
55.50636621842497
 30
0.0
  0
VERTEX
  5
389
  8
DIMENSIONI
 10
-1.199115044248314
 20
55.50636621842497
 30
0.0
  0
VERTEX
  5
38A
  8
DIMENSIONI
 10
-0.0044247787615881
 20
59.10813612992939
 30
0.0
  0
VERTEX
  5
38B
  8
DIMENSIONI
 10
-1.104719764012326
 20
59.10813612992939
 30
0.0
  0
VERTEX
  5
38C
  8
DIMENSIONI
 10
-1.259402654867783
 20
59.1031582538232
 30
0.0
  0
VERTEX
  5
38D
  8
DIMENSIONI
 10
-1.390117994100821
 20
59.08822462550461
 30
0.0
  0
VERTEX
  5
38E
  8
DIMENSIONI
 10
-1.496865781711441
 20
59.06333524497364
 30
0.0
  0
VERTEX
  5
38F
  8
DIMENSIONI
 10
-1.579646017699641
 20
59.02849011223027
 30
0.0
  0
VERTEX
  5
390
  8
DIMENSIONI
 10
-1.697455752212916
 20
58.95142521547512
 30
0.0
  0
VERTEX
  5
391
  8
DIMENSIONI
 10
-1.80309734513327
 20
58.85592374054886
 30
0.0
  0
VERTEX
  5
392
  8
DIMENSIONI
 10
-1.896570796460703
 20
58.74198568745152
 30
0.0
  0
VERTEX
  5
393
  8
DIMENSIONI
 10
-1.977876106195216
 20
58.60961105618308
 30
0.0
  0
VERTEX
  5
394
  8
DIMENSIONI
 10
-2.063421828909081
 20
58.6420594337642
 30
0.0
  0
SEQEND
  5
A68
  8
DIMENSIONI
  0
POLYLINE
  5
A2
  8
DIMENSIONI
 66
     1
 10
0.0
 20
0.0
 30
0.0
 70
     1
  0
VERTEX
  5
395
  8
DIMENSIONI
 10
1.488200589969975
 20
56.16123347506213
 30
0.0
  0
VERTEX
  5
396
  8
DIMENSIONI
 10
1.554756637167615
 20
56.15524158715652
 30
0.0
  0
VERTEX
  5
397
  8
DIMENSIONI
 10
1.615781710913928
 20
56.13726592343971
 30
0.0
  0
VERTEX
  5
398
  8
DIMENSIONI
 10
1.671275811208913
 20
56.10730648391169
 30
0.0
  0
VERTEX
  5
399
  8
DIMENSIONI
 10
1.721238938052571
 20
56.06536326857245
 30
0.0
  0
VERTEX
  5
39A
  8
DIMENSIONI
 10
1.762536873155816
 20
56.01493922727452
 30
0.0
  0
VERTEX
  5
39B
  8
DIMENSIONI
 10
1.792035398229562
 20
55.95953730987039
 30
0.0
  0
VERTEX
  5
39C
  8
DIMENSIONI
 10
1.80973451327381
 20
55.89915751636006
 30
0.0
  0
VERTEX
  5
39D
  8
DIMENSIONI
 10
1.815634218288559
 20
55.83379984674355
 30
0.0
  0
VERTEX
  5
39E
  8
DIMENSIONI
 10
1.809642330382955
 20
55.76844217712703
 30
0.0
  0
VERTEX
  5
39F
  8
DIMENSIONI
 10
1.79166666666614
 20
55.70806238361671
 30
0.0
  0
VERTEX
  5
3A0
  8
DIMENSIONI
 10
1.761707227138117
 20
55.65266046621258
 30
0.0
  0
VERTEX
  5
3A1
  8
DIMENSIONI
 10
1.719764011798884
 20
55.60223642491464
 30
0.0
  0
VERTEX
  5
3A2
  8
DIMENSIONI
 10
1.669339970500948
 20
55.56029320957541
 30
0.0
  0
VERTEX
  5
3A3
  8
DIMENSIONI
 10
1.613938053096819
 20
55.53033377004738
 30
0.0
  0
VERTEX
  5
3A4
  8
DIMENSIONI
 10
1.553558259586494
 20
55.51235810633057
 30
0.0
  0
VERTEX
  5
3A5
  8
DIMENSIONI
 10
1.488200589969975
 20
55.50636621842497
 30
0.0
  0
VERTEX
  5
3A6
  8
DIMENSIONI
 10
1.422842920353456
 20
55.51235810633057
 30
0.0
  0
VERTEX
  5
3A7
  8
DIMENSIONI
 10
1.362463126843131
 20
55.53033377004738
 30
0.0
  0
VERTEX
  5
3A8
  8
DIMENSIONI
 10
1.307061209439002
 20
55.56029320957541
 30
0.0
  0
VERTEX
  5
3A9
  8
DIMENSIONI
 10
1.256637168141066
 20
55.60223642491464
 30
0.0
  0
VERTEX
  5
3AA
  8
DIMENSIONI
 10
1.214693952801833
 20
55.65266046621258
 30
0.0
  0
VERTEX
  5
3AB
  8
DIMENSIONI
 10
1.18473451327381
 20
55.70806238361671
 30
0.0
  0
VERTEX
  5
3AC
  8
DIMENSIONI
 10
1.166758849556996
 20
55.76844217712703
 30
0.0
  0
VERTEX
  5
3AD
  8
DIMENSIONI
 10
1.160766961651391
 20
55.83379984674355
 30
0.0
  0
VERTEX
  5
3AE
  8
DIMENSIONI
 10
1.166758849556996
 20
55.90035589394118
 30
0.0
  0
VERTEX
  5
3AF
  8
DIMENSIONI
 10
1.18473451327381
 20
55.9613809676875
 30
0.0
  0
VERTEX
  5
3B0
  8
DIMENSIONI
 10
1.214693952801833
 20
56.01687506798248
 30
0.0
  0
VERTEX
  5
3B1
  8
DIMENSIONI
 10
1.256637168141066
 20
56.06683819482615
 30
0.0
  0
VERTEX
  5
3B2
  8
DIMENSIONI
 10
1.307061209439002
 20
56.10813612992939
 30
0.0
  0
VERTEX
  5
3B3
  8
DIMENSIONI
 10
1.362463126843131
 20
56.13763465500313
 30
0.0
  0
VERTEX
  5
3B4
  8
DIMENSIONI
 10
1.422842920353456
 20
56.15533377004738
 30
0.0
  0
SEQEND
  5
A69
  8
DIMENSIONI
  0
POLYLINE
  5
A3
  8
DIMENSIONI
 66
     1
 10
0.0
 20
0.0
 30
0.0
 70
     1
  0
VERTEX
  5
3B5
  8
DIMENSIONI
 10
2.461651917403604
 20
57.56536326857245
 30
0.0
  0
VERTEX
  5
3B6
  8
DIMENSIONI
 10
2.474557522123368
 20
57.89565456650756
 30
0.0
  0
VERTEX
  5
3B7
  8
DIMENSIONI
 10
2.51327433628266
 20
58.20216267860196
 30
0.0
  0
VERTEX
  5
3B8
  8
DIMENSIONI
 10
2.542311946902129
 20
58.34649803995889
 30
0.0
  0
VERTEX
  5
3B9
  8
DIMENSIONI
 10
2.57780235988148
 20
58.48488760485564
 30
0.0
  0
VERTEX
  5
3BA
  8
DIMENSIONI
 10
2.619745575220713
 20
58.61733137329222
 30
0.0
  0
VERTEX
  5
3BB
  8
DIMENSIONI
 10
2.668141592919828
 20
58.74382934526862
 30
0.0
  0
VERTEX
  5
3BC
  8
DIMENSIONI
 10
2.779867256636642
 20
58.97511621842497
 30
0.0
  0
VERTEX
  5
3BD
  8
DIMENSIONI
 10
2.842090707964076
 20
59.07893719925092
 30
0.0
  0
VERTEX
  5
3BE
  8
DIMENSIONI
 10
2.908554572270861
 20
59.17487654290873
 30
0.0
  0
VERTEX
  5
3BF
  8
DIMENSIONI
 10
2.979258849556996
 20
59.26293424939841
 30
0.0
  0
VERTEX
  5
3C0
  8
DIMENSIONI
 10
3.054203539822482
 20
59.34311031871995
 30
0.0
  0
VERTEX
  5
3C1
  8
DIMENSIONI
 10
3.13338864306732
 20
59.41540475087335
 30
0.0
  0
VERTEX
  5
3C2
  8
DIMENSIONI
 10
3.216814159291509
 20
59.47981754585859
 30
0.0
  0
VERTEX
  5
3C3
  8
DIMENSIONI
 10
3.350663716813633
 20
59.56370397653706
 30
0.0
  0
VERTEX
  5
3C4
  8
DIMENSIONI
 10
3.486725663716288
 20
59.6236228555931
 30
0.0
  0
VERTEX
  5
3C5
  8
DIMENSIONI
 10
3.624999999999474
 20
59.65957418302673
 30
0.0
  0
VERTEX
  5
3C6
  8
DIMENSIONI
 10
3.765486725663191
 20
59.67155795883794
 30
0.0
  0
VERTEX
  5
3C7
  8
DIMENSIONI
 10
3.879056047197114
 20
59.66422941901494
 30
0.0
  0
VERTEX
  5
3C8
  8
DIMENSIONI
 10
3.989675516223663
 20
59.64224379954591
 30
0.0
  0
VERTEX
  5
3C9
  8
DIMENSIONI
 10
4.097345132742837
 20
59.60560110043086
 30
0.0
  0
VERTEX
  5
3CA
  8
DIMENSIONI
 10
4.202064896754637
 20
59.5543013216698
 30
0.0
  0
VERTEX
  5
3CB
  8
DIMENSIONI
 10
4.303834808259062
 20
59.48834446326272
 30
0.0
  0
VERTEX
  5
3CC
  8
DIMENSIONI
 10
4.402654867256111
 20
59.40773052520962
 30
0.0
  0
VERTEX
  5
3CD
  8
DIMENSIONI
 10
4.498525073745787
 20
59.31245950751051
 30
0.0
  0
VERTEX
  5
3CE
  8
DIMENSIONI
 10
4.591445427728088
 20
59.20253141016538
 30
0.0
  0
VERTEX
  5
3CF
  8
DIMENSIONI
 10
4.698608038347556
 20
59.05079837181729
 30
0.0
  0
VERTEX
  5
3D0
  8
DIMENSIONI
 10
4.79148230088443
 20
58.88615972874945
 30
0.0
  0
VERTEX
  5
3D1
  8
DIMENSIONI
 10
4.870068215338707
 20
58.70861548096184
 30
0.0
  0
VERTEX
  5
3D2
  8
DIMENSIONI
 10
4.934365781710389
 20
58.51816562845446
 30
0.0
  0
VERTEX
  5
3D3
  8
DIMENSIONI
 10
4.984374999999474
 20
58.31481017122732
 30
0.0
  0
VERTEX
  5
3D4
  8
DIMENSIONI
 10
5.020095870205964
 20
58.09854910928042
 30
0.0
  0
VERTEX
  5
3D5
  8
DIMENSIONI
 10
5.041528392329858
 20
57.86938244261376
 30
0.0
  0
VERTEX
  5
3D6
  8
DIMENSIONI
 10
5.048672566371156
 20
57.62731017122732
 30
0.0
  0
VERTEX
  5
3D7
  8
DIMENSIONI
 10
5.036135693214814
 20
57.29231754585859
 30
0.0
  0
VERTEX
  5
3D8
  8
DIMENSIONI
 10
4.998525073745787
 20
56.98350486149281
 30
0.0
  0
VERTEX
  5
3D9
  8
DIMENSIONI
 10
4.970317109144018
 20
56.83891599718603
 30
0.0
  0
VERTEX
  5
3DA
  8
DIMENSIONI
 10
4.935840707964076
 20
56.70087211812998
 30
0.0
  0
VERTEX
  5
3DB
  8
DIMENSIONI
 10
4.895095870205965
 20
56.56937322432467
 30
0.0
  0
VERTEX
  5
3DC
  8
DIMENSIONI
 10
4.84808259586968
 20
56.4444193157701
 30
0.0
  0
VERTEX
  5
3DD
  8
DIMENSIONI
 10
4.740873893804784
 20
56.21774158715653
 30
0.0
  0
VERTEX
  5
3DE
  8
DIMENSIONI
 10
4.619837758111569
 20
56.02443406503264
 30
0.0
  0
VERTEX
  5
3DF
  8
DIMENSIONI
 10
4.554134402654342
 20
55.94029413140431
 30
0.0
  0
VERTEX
  5
3E0
  8
DIMENSIONI
 10
4.484974188790035
 20
55.86449674939842
 30
0.0
  0
VERTEX
  5
3E1
  8
DIMENSIONI
 10
4.412357116518649
 20
55.79704191901494
 30
0.0
  0
VERTEX
  5
3E2
  8
DIMENSIONI
 10
4.336283185840182
 20
55.73792964025387
 30
0.0
  0
VERTEX
  5
3E3
  8
DIMENSIONI
 10
4.182061209439002
 20
55.64178288509163
 30
0.0
  0
VERTEX
  5
3E4
  8
DIMENSIONI
 10
4.030604719763486
 20
55.57310663140431
 30
0.0
  0
VERTEX
  5
3E5
  8
DIMENSIONI
 10
3.881913716813633
 20
55.53190087919192
 30
0.0
  0
VERTEX
  5
3E6
  8
DIMENSIONI
 10
3.735988200589444
 20
55.51816562845446
 30
0.0
  0
VERTEX
  5
3E7
  8
DIMENSIONI
 10
3.595916297934577
 20
55.52872056945741
 30
0.0
  0
VERTEX
  5
3E8
  8
DIMENSIONI
 10
3.461836283185315
 20
55.56038539246626
 30
0.0
  0
VERTEX
  5
3E9
  8
DIMENSIONI
 10
3.333748156341657
 20
55.61316009748101
 30
0.0
  0
VERTEX
  5
3EA
  8
DIMENSIONI
 10
3.211651917403604
 20
55.68704468450166
 30
0.0
  0
VERTEX
  5
3EB
  8
DIMENSIONI
 10
3.095547566371155
 20
55.78203915352821
 30
0.0
  0
VERTEX
  5
3EC
  8
DIMENSIONI
 10
2.985435103244312
 20
55.89814350456066
 30
0.0
  0
VERTEX
  5
3ED
  8
DIMENSIONI
 10
2.881314528023072
 20
56.03535773759901
 30
0.0
  0
VERTEX
  5
3EE
  8
DIMENSIONI
 10
2.783185840707438
 20
56.19368185264325
 30
0.0
  0
VERTEX
  5
3EF
  8
DIMENSIONI
 10
2.707826327433102
 20
56.33965346031287
 30
0.0
  0
VERTEX
  5
3F0
  8
DIMENSIONI
 10
2.642514749262011
 20
56.49290751636006
 30
0.0
  0
VERTEX
  5
3F1
  8
DIMENSIONI
 10
2.587251106194164
 20
56.65344402078485
 30
0.0
  0
VERTEX
  5
3F2
  8
DIMENSIONI
 10
2.542035398229562
 20
56.82126297358721
 30
0.0
  0
VERTEX
  5
3F3
  8
DIMENSIONI
 10
2.506867625368205
 20
56.99636437476715
 30
0.0
  0
VERTEX
  5
3F4
  8
DIMENSIONI
 10
2.481747787610093
 20
57.17874822432466
 30
0.0
  0
VERTEX
  5
3F5
  8
DIMENSIONI
 10
2.466675884955226
 20
57.36841452225977
 30
0.0
  0
SEQEND
  5
A6A
  8
DIMENSIONI
  0
POLYLINE
  5
A4
  8
DIMENSIONI
 66
     1
 10
0.0
 20
0.0
 30
0.0
 70
     1
  0
VERTEX
  5
3F6
  8
DIMENSIONI
 10
3.039823008849031
 20
57.49161695588809
 30
0.0
  0
VERTEX
  5
3F7
  8
DIMENSIONI
 10
3.052544247787084
 20
57.09762728037187
 30
0.0
  0
VERTEX
  5
3F8
  8
DIMENSIONI
 10
3.090707964601244
 20
56.74161695588809
 30
0.0
  0
VERTEX
  5
3F9
  8
DIMENSIONI
 10
3.119330752211864
 20
56.57785405028336
 30
0.0
  0
VERTEX
  5
3FA
  8
DIMENSIONI
 10
3.15431415929151
 20
56.42358598243676
 30
0.0
  0
VERTEX
  5
3FB
  8
DIMENSIONI
 10
3.195658185840182
 20
56.27881275234826
 30
0.0
  0
VERTEX
  5
3FC
  8
DIMENSIONI
 10
3.243362831857881
 20
56.14353436001789
 30
0.0
  0
VERTEX
  5
3FD
  8
DIMENSIONI
 10
3.287979351031922
 20
56.04051997948692
 30
0.0
  0
VERTEX
  5
3FE
  8
DIMENSIONI
 10
3.337758112093869
 20
55.9512408496934
 30
0.0
  0
VERTEX
  5
3FF
  8
DIMENSIONI
 10
3.392699115043722
 20
55.87569697063736
 30
0.0
  0
VERTEX
  5
400
  8
DIMENSIONI
 10
3.45280235988148
 20
55.81388834231877
 30
0.0
  0
VERTEX
  5
401
  8
DIMENSIONI
 10
3.518067846607143
 20
55.76581496473765
 30
0.0
  0
VERTEX
  5
402
  8
DIMENSIONI
 10
3.588495575220713
 20
55.73147683789399
 30
0.0
  0
VERTEX
  5
403
  8
DIMENSIONI
 10
3.664085545722188
 20
55.7108739617878
 30
0.0
  0
VERTEX
  5
404
  8
DIMENSIONI
 10
3.744837758111569
 20
55.70400633641906
 30
0.0
  0
VERTEX
  5
405
  8
DIMENSIONI
 10
3.825221238937527
 20
55.71294807683205
 30
0.0
  0
VERTEX
  5
406
  8
DIMENSIONI
 10
3.907079646017173
 20
55.73977329807099
 30
0.0
  0
VERTEX
  5
407
  8
DIMENSIONI
 10
3.990412979350506
 20
55.78448200013588
 30
0.0
  0
VERTEX
  5
408
  8
DIMENSIONI
 10
4.075221238937527
 20
55.84707418302673
 30
0.0
  0
VERTEX
  5
409
  8
DIMENSIONI
 10
4.155604719763486
 20
55.93068406503264
 30
0.0
  0
VERTEX
  5
40A
  8
DIMENSIONI
 10
4.225663716813633
 20
56.03844586444266
 30
0.0
  0
VERTEX
  5
40B
  8
DIMENSIONI
 10
4.285398230087971
 20
56.17035958125683
 30
0.0
  0
VERTEX
  5
40C
  8
DIMENSIONI
 10
4.334808259586495
 20
56.32642521547511
 30
0.0
  0
VERTEX
  5
40D
  8
DIMENSIONI
 10
4.39417404129741
 20
56.60610810633057
 30
0.0
  0
VERTEX
  5
40E
  8
DIMENSIONI
 10
4.436578171090919
 20
56.9377821476285
 30
0.0
  0
VERTEX
  5
40F
  8
DIMENSIONI
 10
4.462020648967026
 20
57.32144733936892
 30
0.0
  0
VERTEX
  5
410
  8
DIMENSIONI
 10
4.470501474925728
 20
57.75710368155181
 30
0.0
  0
VERTEX
  5
411
  8
DIMENSIONI
 10
4.461651917403604
 20
58.08509040721553
 30
0.0
  0
VERTEX
  5
412
  8
DIMENSIONI
 10
4.435103244837232
 20
58.38468480249576
 30
0.0
  0
VERTEX
  5
413
  8
DIMENSIONI
 10
4.390855457226612
 20
58.65588686739252
 30
0.0
  0
VERTEX
  5
414
  8
DIMENSIONI
 10
4.328908554571745
 20
58.89869660190579
 30
0.0
  0
VERTEX
  5
415
  8
DIMENSIONI
 10
4.271939528023072
 20
59.0559606137052
 30
0.0
  0
VERTEX
  5
416
  8
DIMENSIONI
 10
4.207227138642541
 20
59.18851961075535
 30
0.0
  0
VERTEX
  5
417
  8
DIMENSIONI
 10
4.134771386430153
 20
59.29637359305623
 30
0.0
  0
VERTEX
  5
418
  8
DIMENSIONI
 10
4.054572271385904
 20
59.37952256060785
 30
0.0
  0
VERTEX
  5
419
  8
DIMENSIONI
 10
3.990966076695639
 20
59.42211105618307
 30
0.0
  0
VERTEX
  5
41A
  8
DIMENSIONI
 10
3.921091445427202
 20
59.45253141016538
 30
0.0
  0
VERTEX
  5
41B
  8
DIMENSIONI
 10
3.844948377580595
 20
59.47078362255476
 30
0.0
  0
VERTEX
  5
41C
  8
DIMENSIONI
 10
3.762536873155816
 20
59.47686769335122
 30
0.0
  0
VERTEX
  5
41D
  8
DIMENSIONI
 10
3.665007374630743
 20
59.46562138066685
 30
0.0
  0
VERTEX
  5
41E
  8
DIMENSIONI
 10
3.573008849556996
 20
59.43188244261376
 30
0.0
  0
VERTEX
  5
41F
  8
DIMENSIONI
 10
3.486541297934577
 20
59.37565087919192
 30
0.0
  0
VERTEX
  5
420
  8
DIMENSIONI
 10
3.405604719763486
 20
59.29692669040136
 30
0.0
  0
VERTEX
  5
421
  8
DIMENSIONI
 10
3.354627581120418
 20
59.23133856355771
 30
0.0
  0
VERTEX
  5
422
  8
DIMENSIONI
 10
3.307890855456701
 20
59.15699306208278
 30
0.0
  0
VERTEX
  5
423
  8
DIMENSIONI
 10
3.265394542772335
 20
59.07389018597659
 30
0.0
  0
VERTEX
  5
424
  8
DIMENSIONI
 10
3.22713864306732
 20
58.98202993523913
 30
0.0
  0
VERTEX
  5
425
  8
DIMENSIONI
 10
3.163348082595344
 20
58.7720373098704
 30
0.0
  0
VERTEX
  5
426
  8
DIMENSIONI
 10
3.116519174040772
 20
58.52701518597659
 30
0.0
  0
VERTEX
  5
427
  8
DIMENSIONI
 10
3.082964601769385
 20
58.26540014172879
 30
0.0
  0
VERTEX
  5
428
  8
DIMENSIONI
 10
3.058997050146966
 20
58.00562875529812
 30
0.0
  0
VERTEX
  5
429
  8
DIMENSIONI
 10
3.044616519173515
 20
57.74770102668455
 30
0.0
  0
SEQEND
  5
A6B
  8
DIMENSIONI
  0
POLYLINE
  5
A5
  8
DIMENSIONI
 66
     1
 10
0.0
 20
0.0
 30
0.0
  0
VERTEX
  5
42A
  8
DIMENSIONI
 10
-30.26393202250074
 20
57.67155795882788
 30
0.0
  0
VERTEX
  5
42B
  8
DIMENSIONI
 10
-5.548672566372208
 20
57.6715579588361
 30
0.0
  0
SEQEND
  5
A6C
  8
DIMENSIONI
  0
POLYLINE
  5
A6
  8
DIMENSIONI
 66
     1
 10
0.0
 20
0.0
 30
0.0
  0
VERTEX
  5
42C
  8
DIMENSIONI
 10
5.548672566371156
 20
57.67155795883979
 30
0.0
  0
VERTEX
  5
42D
  8
DIMENSIONI
 10
30.26393202249968
 20
57.67155795884801
 30
0.0
  0
SEQEND
  5
A6D
  8
DIMENSIONI
  0
POLYLINE
  5
A7
  8
DIMENSIONI
 66
     1
 10
0.0
 20
0.0
 30
0.0
  0
VERTEX
  5
42E
  8
DIMENSIONI
 10
-33.50000000000053
 20
57.67155795882681
 30
0.0
  0
VERTEX
  5
42F
  8
DIMENSIONI
 10
-33.50000000000119
 20
59.67155795882681
 30
0.0
  0
SEQEND
  5
A6E
  8
DIMENSIONI
  0
POLYLINE
  5
A8
  8
DIMENSIONI
 66
     1
 10
0.0
 20
0.0
 30
0.0
  0
VERTEX
  5
430
  8
DIMENSIONI
 10
33.49999999999947
 20
57.67155795884908
 30
0.0
  0
VERTEX
  5
431
  8
DIMENSIONI
 10
33.49999999999881
 20
59.67155795884908
 30
0.0
  0
SEQEND
  5
A6F
  8
DIMENSIONI
  0
POLYLINE
  5
A9
  8
DIMENSIONI
 66
     1
 10
0.0
 20
0.0
 30
0.0
  0
VERTEX
  5
432
  8
DIMENSIONI
 10
-33.50000000000053
 20
57.67155795882681
 30
0.0
  0
VERTEX
  5
433
  8
DIMENSIONI
 10
-30.2639320225004
 20
56.67155795882788
 30
0.0
  0
SEQEND
  5
A70
  8
DIMENSIONI
  0
POLYLINE
  5
AA
  8
DIMENSIONI
 66
     1
 10
0.0
 20
0.0
 30
0.0
  0
VERTEX
  5
434
  8
DIMENSIONI
 10
-30.2639320225004
 20
56.67155795882788
 30
0.0
  0
VERTEX
  5
435
  8
DIMENSIONI
 10
-30.26393202250107
 20
58.67155795882788
 30
0.0
  0
SEQEND
  5
A71
  8
DIMENSIONI
  0
POLYLINE
  5
AB
  8
DIMENSIONI
 66
     1
 10
0.0
 20
0.0
 30
0.0
  0
VERTEX
  5
436
  8
DIMENSIONI
 10
-30.26393202250107
 20
58.67155795882788
 30
0.0
  0
VERTEX
  5
437
  8
DIMENSIONI
 10
-33.50000000000053
 20
57.67155795882681
 30
0.0
  0
SEQEND
  5
A72
  8
DIMENSIONI
  0
POLYLINE
  5
AC
  8
DIMENSIONI
 66
     1
 10
0.0
 20
0.0
 30
0.0
  0
VERTEX
  5
438
  8
DIMENSIONI
 10
33.49999999999947
 20
57.67155795884908
 30
0.0
  0
VERTEX
  5
439
  8
DIMENSIONI
 10
30.26393202249935
 20
58.67155795884801
 30
0.0
  0
SEQEND
  5
A73
  8
DIMENSIONI
  0
POLYLINE
  5
AD
  8
DIMENSIONI
 66
     1
 10
0.0
 20
0.0
 30
0.0
  0
VERTEX
  5
43A
  8
DIMENSIONI
 10
30.26393202249935
 20
58.67155795884801
 30
0.0
  0
VERTEX
  5
43B
  8
DIMENSIONI
 10
30.26393202250002
 20
56.67155795884801
 30
0.0
  0
SEQEND
  5
A74
  8
DIMENSIONI
  0
POLYLINE
  5
AE
  8
DIMENSIONI
 66
     1
 10
0.0
 20
0.0
 30
0.0
  0
VERTEX
  5
43C
  8
DIMENSIONI
 10
30.26393202250002
 20
56.67155795884801
 30
0.0
  0
VERTEX
  5
43D
  8
DIMENSIONI
 10
33.49999999999947
 20
57.67155795884908
 30
0.0
  0
SEQEND
  5
A75
  8
DIMENSIONI
  0
POLYLINE
  5
AF
  8
DIMENSIONI
 66
     1
 10
0.0
 20
0.0
 30
0.0
 70
     1
  0
VERTEX
  5
43E
  8
DIMENSIONI
 10
-2.700589970501411
 20
46.06417941424239
 30
0.0
  0
VERTEX
  5
43F
  8
DIMENSIONI
 10
-2.930678466076632
 20
45.5627044879887
 30
0.0
  0
VERTEX
  5
440
  8
DIMENSIONI
 10
-4.134218289085482
 20
45.5627044879887
 30
0.0
  0
VERTEX
  5
441
  8
DIMENSIONI
 10
-4.396755162241824
 20
45.02583133164652
 30
0.0
  0
VERTEX
  5
442
  8
DIMENSIONI
 10
-4.206397492625305
 20
44.99158538769372
 30
0.0
  0
VERTEX
  5
443
  8
DIMENSIONI
 10
-4.026179941002886
 20
44.94636967972912
 30
0.0
  0
VERTEX
  5
444
  8
DIMENSIONI
 10
-3.856102507374567
 20
44.89018420775271
 30
0.0
  0
VERTEX
  5
445
  8
DIMENSIONI
 10
-3.696165191740349
 20
44.82302897176451
 30
0.0
  0
VERTEX
  5
446
  8
DIMENSIONI
 10
-3.546367994100231
 20
44.74490397176451
 30
0.0
  0
VERTEX
  5
447
  8
DIMENSIONI
 10
-3.406710914454213
 20
44.65580920775271
 30
0.0
  0
VERTEX
  5
448
  8
DIMENSIONI
 10
-3.277193952802296
 20
44.55574467972912
 30
0.0
  0
VERTEX
  5
449
  8
DIMENSIONI
 10
-3.157817109144479
 20
44.44471038769372
 30
0.0
  0
VERTEX
  5
44A
  8
DIMENSIONI
 10
-3.065864675516161
 20
44.34220301306246
 30
0.0
  0
VERTEX
  5
44B
  8
DIMENSIONI
 10
-2.986172566371618
 20
44.23527085967012
 30
0.0
  0
VERTEX
  5
44C
  8
DIMENSIONI
 10
-2.91874078171085
 20
44.12391392751674
 30
0.0
  0
VERTEX
  5
44D
  8
DIMENSIONI
 10
-2.86356932153386
 20
44.00813221660228
 30
0.0
  0
VERTEX
  5
44E
  8
DIMENSIONI
 10
-2.820658185840645
 20
43.88792572692676
 30
0.0
  0
VERTEX
  5
44F
  8
DIMENSIONI
 10
-2.790007374631205
 20
43.76329445849018
 30
0.0
  0
VERTEX
  5
450
  8
DIMENSIONI
 10
-2.771616887905541
 20
43.63423841129254
 30
0.0
  0
VERTEX
  5
451
  8
DIMENSIONI
 10
-2.765486725663653
 20
43.50075758533384
 30
0.0
  0
VERTEX
  5
452
  8
DIMENSIONI
 10
-2.773506637168078
 20
43.34589032869666
 30
0.0
  0
VERTEX
  5
453
  8
DIMENSIONI
 10
-2.797566371681352
 20
43.19692277707424
 30
0.0
  0
VERTEX
  5
454
  8
DIMENSIONI
 10
-2.837665929203476
 20
43.05385493046657
 30
0.0
  0
VERTEX
  5
455
  8
DIMENSIONI
 10
-2.893805309734449
 20
42.91668678887365
 30
0.0
  0
VERTEX
  5
456
  8
DIMENSIONI
 10
-2.962112831858343
 20
42.78744637589431
 30
0.0
  0
VERTEX
  5
457
  8
DIMENSIONI
 10
-3.038716814159228
 20
42.66816171512734
 30
0.0
  0
VERTEX
  5
458
  8
DIMENSIONI
 10
-3.123617256637104
 20
42.55883280657277
 30
0.0
  0
VERTEX
  5
459
  8
DIMENSIONI
 10
-3.216814159291971
 20
42.45945965023059
 30
0.0
  0
VERTEX
  5
45A
  8
DIMENSIONI
 10
-3.316924778760998
 20
42.36967351453737
 30
0.0
  0
VERTEX
  5
45B
  8
DIMENSIONI
 10
-3.422566371681352
 20
42.2891056679297
 30
0.0
  0
VERTEX
  5
45C
  8
DIMENSIONI
 10
-3.533738938053034
 20
42.21775611040758
 30
0.0
  0
VERTEX
  5
45D
  8
DIMENSIONI
 10
-3.650442477876042
 20
42.155624841971
 30
0.0
  0
VERTEX
  5
45E
  8
DIMENSIONI
 10
-3.821165191740349
 20
42.08464401601231
 30
0.0
  0
VERTEX
  5
45F
  8
DIMENSIONI
 10
-3.994100294985186
 20
42.0339434260418
 30
0.0
  0
VERTEX
  5
460
  8
DIMENSIONI
 10
-4.169247787610555
 20
42.00352307205949
 30
0.0
  0
VERTEX
  5
461
  8
DIMENSIONI
 10
-4.346607669616455
 20
41.9933829540654
 30
0.0
  0
VERTEX
  5
462
  8
DIMENSIONI
 10
-4.514288348082532
 20
42.0010341340064
 30
0.0
  0
VERTEX
  5
463
  8
DIMENSIONI
 10
-4.657448377581057
 20
42.02398767382941
 30
0.0
  0
VERTEX
  5
464
  8
DIMENSIONI
 10
-4.77608775811203
 20
42.06224357353442
 30
0.0
  0
VERTEX
  5
465
  8
DIMENSIONI
 10
-4.870206489675452
 20
42.11580183312144
 30
0.0
  0
VERTEX
  5
466
  8
DIMENSIONI
 10
-4.941832595870142
 20
42.17857838179401
 30
0.0
  0
VERTEX
  5
467
  8
DIMENSIONI
 10
-4.99299410029492
 20
42.24448914875566
 30
0.0
  0
VERTEX
  5
468
  8
DIMENSIONI
 10
-5.023691002949787
 20
42.31353413400639
 30
0.0
  0
VERTEX
  5
469
  8
DIMENSIONI
 10
-5.033923303834744
 20
42.38571333754622
 30
0.0
  0
VERTEX
  5
46A
  8
DIMENSIONI
 10
-5.029682890855392
 20
42.42581289506835
 30
0.0
  0
VERTEX
  5
46B
  8
DIMENSIONI
 10
-5.01696165191734
 20
42.46351569742823
 30
0.0
  0
VERTEX
  5
46C
  8
DIMENSIONI
 10
-4.995759587020585
 20
42.49882174462587
 30
0.0
  0
VERTEX
  5
46D
  8
DIMENSIONI
 10
-4.966076696165127
 20
42.53173103666127
 30
0.0
  0
VERTEX
  5
46E
  8
DIMENSIONI
 10
-4.929941002949788
 20
42.55947808680877
 30
0.0
  0
VERTEX
  5
46F
  8
DIMENSIONI
 10
-4.889380530973387
 20
42.57929740834268
 30
0.0
  0
VERTEX
  5
470
  8
DIMENSIONI
 10
-4.844395280235924
 20
42.59118900126303
 30
0.0
  0
VERTEX
  5
471
  8
DIMENSIONI
 10
-4.794985250737399
 20
42.59515286556982
 30
0.0
  0
VERTEX
  5
472
  8
DIMENSIONI
 10
-4.723082595870142
 20
42.58925316055507
 30
0.0
  0
VERTEX
  5
473
  8
DIMENSIONI
 10
-4.660766961651854
 20
42.57155404551082
 30
0.0
  0
VERTEX
  5
474
  8
DIMENSIONI
 10
-4.582964601769848
 20
42.52951864728074
 30
0.0
  0
VERTEX
  5
475
  8
DIMENSIONI
 10
-4.46460176991144
 20
42.45061009270847
 30
0.0
  0
VERTEX
  5
476
  8
DIMENSIONI
 10
-4.353613569321469
 20
42.38350094816569
 30
0.0
  0
VERTEX
  5
477
  8
DIMENSIONI
 10
-4.241887905604655
 20
42.33556584492086
 30
0.0
  0
VERTEX
  5
478
  8
DIMENSIONI
 10
-4.129424778760997
 20
42.30680478297396
 30
0.0
  0
VERTEX
  5
479
  8
DIMENSIONI
 10
-4.016224188790496
 20
42.29721776232498
 30
0.0
  0
VERTEX
  5
47A
  8
DIMENSIONI
 10
-3.931254609144479
 20
42.30129685524534
 30
0.0
  0
VERTEX
  5
47B
  8
DIMENSIONI
 10
-3.848912241887842
 20
42.3135341340064
 30
0.0
  0
VERTEX
  5
47C
  8
DIMENSIONI
 10
-3.769197087020585
 20
42.33392959860817
 30
0.0
  0
VERTEX
  5
47D
  8
DIMENSIONI
 10
-3.692109144542709
 20
42.36248324905065
 30
0.0
  0
VERTEX
  5
47E
  8
DIMENSIONI
 10
-3.617648414454213
 20
42.39919508533383
 30
0.0
  0
VERTEX
  5
47F
  8
DIMENSIONI
 10
-3.545814896755098
 20
42.44406510745772
 30
0.0
  0
VERTEX
  5
480
  8
DIMENSIONI
 10
-3.476608591445363
 20
42.49709331542233
 30
0.0
  0
VERTEX
  5
481
  8
DIMENSIONI
 10
-3.410029498525009
 20
42.55827970922764
 30
0.0
  0
VERTEX
  5
482
  8
DIMENSIONI
 10
-3.3488431047197
 20
42.62531971660227
 30
0.0
  0
VERTEX
  5
483
  8
DIMENSIONI
 10
-3.295814896755098
 20
42.69590876527484
 30
0.0
  0
VERTEX
  5
484
  8
DIMENSIONI
 10
-3.250944874631204
 20
42.77004685524534
 30
0.0
  0
VERTEX
  5
485
  8
DIMENSIONI
 10
-3.214233038348019
 20
42.84773398651378
 30
0.0
  0
VERTEX
  5
486
  8
DIMENSIONI
 10
-3.185679387905541
 20
42.92897015908015
 30
0.0
  0
VERTEX
  5
487
  8
DIMENSIONI
 10
-3.165283923303771
 20
43.01375537294446
 30
0.0
  0
VERTEX
  5
488
  8
DIMENSIONI
 10
-3.153046644542709
 20
43.1020896281067
 30
0.0
  0
VERTEX
  5
489
  8
DIMENSIONI
 10
-3.148967551622355
 20
43.19397292456687
 30
0.0
  0
VERTEX
  5
48A
  8
DIMENSIONI
 10
-3.163532448377517
 20
43.37234681837218
 30
0.0
  0
VERTEX
  5
48B
  8
DIMENSIONI
 10
-3.207227138643004
 20
43.54463664138103
 30
0.0
  0
VERTEX
  5
48C
  8
DIMENSIONI
 10
-3.280051622418815
 20
43.71084239359342
 30
0.0
  0
VERTEX
  5
48D
  8
DIMENSIONI
 10
-3.382005899704951
 20
43.87096407500935
 30
0.0
  0
VERTEX
  5
48E
  8
DIMENSIONI
 10
-3.509587020648904
 20
44.01910198061407
 30
0.0
  0
VERTEX
  5
48F
  8
DIMENSIONI
 10
-3.659292035398166
 20
44.14935640539284
 30
0.0
  0
VERTEX
  5
490
  8
DIMENSIONI
 10
-3.831120943952739
 20
44.26172734934563
 30
0.0
  0
VERTEX
  5
491
  8
DIMENSIONI
 10
-4.02507374631262
 20
44.35621481247248
 30
0.0
  0
VERTEX
  5
492
  8
DIMENSIONI
 10
-4.2004056047197
 20
44.4155805941834
 30
0.0
  0
VERTEX
  5
493
  8
DIMENSIONI
 10
-4.404867256637104
 20
44.46093457648428
 30
0.0
  0
VERTEX
  5
494
  8
DIMENSIONI
 10
-4.638458702064833
 20
44.49227675937513
 30
0.0
  0
VERTEX
  5
495
  8
DIMENSIONI
 10
-4.901179941002885
 20
44.50960714285596
 30
0.0
  0
VERTEX
  5
496
  8
DIMENSIONI
 10
-4.134218289085482
 20
46.06417941424239
 30
0.0
  0
SEQEND
  5
A76
  8
DIMENSIONI
  0
POLYLINE
  5
B0
  8
DIMENSIONI
 66
     1
 10
0.0
 20
0.0
 30
0.0
 70
     1
  0
VERTEX
  5
497
  8
DIMENSIONI
 10
-2.084070796460114
 20
44.04058059418339
 30
0.0
  0
VERTEX
  5
498
  8
DIMENSIONI
 10
-2.071165191740349
 20
44.3708718921185
 30
0.0
  0
VERTEX
  5
499
  8
DIMENSIONI
 10
-2.032448377581057
 20
44.67738000421289
 30
0.0
  0
VERTEX
  5
49A
  8
DIMENSIONI
 10
-2.003410766961588
 20
44.82171536556982
 30
0.0
  0
VERTEX
  5
49B
  8
DIMENSIONI
 10
-1.967920353982237
 20
44.96010493046658
 30
0.0
  0
VERTEX
  5
49C
  8
DIMENSIONI
 10
-1.925977138643004
 20
45.09254869890315
 30
0.0
  0
VERTEX
  5
49D
  8
DIMENSIONI
 10
-1.877581120943889
 20
45.21904667087956
 30
0.0
  0
VERTEX
  5
49E
  8
DIMENSIONI
 10
-1.765855457227075
 20
45.4503335440359
 30
0.0
  0
VERTEX
  5
49F
  8
DIMENSIONI
 10
-1.703632005899641
 20
45.55415452486186
 30
0.0
  0
VERTEX
  5
4A0
  8
DIMENSIONI
 10
-1.637168141592857
 20
45.65009386851968
 30
0.0
  0
VERTEX
  5
4A1
  8
DIMENSIONI
 10
-1.566463864306721
 20
45.73815157500935
 30
0.0
  0
VERTEX
  5
4A2
  8
DIMENSIONI
 10
-1.491519174041234
 20
45.81832764433089
 30
0.0
  0
VERTEX
  5
4A3
  8
DIMENSIONI
 10
-1.412334070796397
 20
45.89062207648428
 30
0.0
  0
VERTEX
  5
4A4
  8
DIMENSIONI
 10
-1.328908554572208
 20
45.95503487146953
 30
0.0
  0
VERTEX
  5
4A5
  8
DIMENSIONI
 10
-1.195058997050084
 20
46.038921302148
 30
0.0
  0
VERTEX
  5
4A6
  8
DIMENSIONI
 10
-1.058997050147429
 20
46.09884018120405
 30
0.0
  0
VERTEX
  5
4A7
  8
DIMENSIONI
 10
-0.9207227138642431
 20
46.13479150863767
 30
0.0
  0
VERTEX
  5
4A8
  8
DIMENSIONI
 10
-0.7802359882005263
 20
46.14677528444888
 30
0.0
  0
VERTEX
  5
4A9
  8
DIMENSIONI
 10
-0.666666666666603
 20
46.13944674462587
 30
0.0
  0
VERTEX
  5
4AA
  8
DIMENSIONI
 10
-0.5560471976400543
 20
46.11746112515684
 30
0.0
  0
VERTEX
  5
4AB
  8
DIMENSIONI
 10
-0.4483775811208802
 20
46.0808184260418
 30
0.0
  0
VERTEX
  5
4AC
  8
DIMENSIONI
 10
-0.3436578171090807
 20
46.02951864728074
 30
0.0
  0
VERTEX
  5
4AD
  8
DIMENSIONI
 10
-0.241887905604656
 20
45.96356178887366
 30
0.0
  0
VERTEX
  5
4AE
  8
DIMENSIONI
 10
-0.1430678466076059
 20
45.88294785082056
 30
0.0
  0
VERTEX
  5
4AF
  8
DIMENSIONI
 10
-0.0471976401179304
 20
45.78767683312145
 30
0.0
  0
VERTEX
  5
4B0
  8
DIMENSIONI
 10
0.0457227138643703
 20
45.67774873577631
 30
0.0
  0
VERTEX
  5
4B1
  8
DIMENSIONI
 10
0.1528853244838395
 20
45.52601569742824
 30
0.0
  0
VERTEX
  5
4B2
  8
DIMENSIONI
 10
0.2457595870207127
 20
45.36137705436039
 30
0.0
  0
VERTEX
  5
4B3
  8
DIMENSIONI
 10
0.3243455014749901
 20
45.18383280657278
 30
0.0
  0
VERTEX
  5
4B4
  8
DIMENSIONI
 10
0.3886430678466715
 20
44.9933829540654
 30
0.0
  0
VERTEX
  5
4B5
  8
DIMENSIONI
 10
0.4386522861357571
 20
44.79002749683826
 30
0.0
  0
VERTEX
  5
4B6
  8
DIMENSIONI
 10
0.4743731563422468
 20
44.57376643489136
 30
0.0
  0
VERTEX
  5
4B7
  8
DIMENSIONI
 10
0.4958056784661405
 20
44.34459976822469
 30
0.0
  0
VERTEX
  5
4B8
  8
DIMENSIONI
 10
0.5029498525074385
 20
44.10252749683826
 30
0.0
  0
VERTEX
  5
4B9
  8
DIMENSIONI
 10
0.4904129793510963
 20
43.76753487146952
 30
0.0
  0
VERTEX
  5
4BA
  8
DIMENSIONI
 10
0.4528023598820697
 20
43.45872218710375
 30
0.0
  0
VERTEX
  5
4BB
  8
DIMENSIONI
 10
0.4245943952802997
 20
43.31413332279696
 30
0.0
  0
VERTEX
  5
4BC
  8
DIMENSIONI
 10
0.3901179941003587
 20
43.17608944374091
 30
0.0
  0
VERTEX
  5
4BD
  8
DIMENSIONI
 10
0.3493731563422466
 20
43.04459054993561
 30
0.0
  0
VERTEX
  5
4BE
  8
DIMENSIONI
 10
0.3023598820059634
 20
42.91963664138103
 30
0.0
  0
VERTEX
  5
4BF
  8
DIMENSIONI
 10
0.1951511799410667
 20
42.69295891276747
 30
0.0
  0
VERTEX
  5
4C0
  8
DIMENSIONI
 10
0.0741150442478514
 20
42.49965139064357
 30
0.0
  0
VERTEX
  5
4C1
  8
DIMENSIONI
 10
0.0084116887906243
 20
42.41551145701526
 30
0.0
  0
VERTEX
  5
4C2
  8
DIMENSIONI
 10
-0.0607485250736825
 20
42.33971407500935
 30
0.0
  0
VERTEX
  5
4C3
  8
DIMENSIONI
 10
-0.1333655973450691
 20
42.27225924462586
 30
0.0
  0
VERTEX
  5
4C4
  8
DIMENSIONI
 10
-0.2094395280235353
 20
42.21314696586481
 30
0.0
  0
VERTEX
  5
4C5
  8
DIMENSIONI
 10
-0.3636615044247151
 20
42.11700021070256
 30
0.0
  0
VERTEX
  5
4C6
  8
DIMENSIONI
 10
-0.5151179941002313
 20
42.04832395701524
 30
0.0
  0
VERTEX
  5
4C7
  8
DIMENSIONI
 10
-0.6638089970500838
 20
42.00711820480286
 30
0.0
  0
VERTEX
  5
4C8
  8
DIMENSIONI
 10
-0.8097345132742726
 20
41.9933829540654
 30
0.0
  0
VERTEX
  5
4C9
  8
DIMENSIONI
 10
-0.9498064159291398
 20
42.00393789506835
 30
0.0
  0
VERTEX
  5
4CA
  8
DIMENSIONI
 10
-1.083886430678402
 20
42.03560271807719
 30
0.0
  0
VERTEX
  5
4CB
  8
DIMENSIONI
 10
-1.21197455752206
 20
42.08837742309194
 30
0.0
  0
VERTEX
  5
4CC
  8
DIMENSIONI
 10
-1.334070796460113
 20
42.16226201011259
 30
0.0
  0
VERTEX
  5
4CD
  8
DIMENSIONI
 10
-1.450175147492562
 20
42.25725647913914
 30
0.0
  0
VERTEX
  5
4CE
  8
DIMENSIONI
 10
-1.560287610619405
 20
42.37336083017159
 30
0.0
  0
VERTEX
  5
4CF
  8
DIMENSIONI
 10
-1.664408185840644
 20
42.51057506320994
 30
0.0
  0
VERTEX
  5
4D0
  8
DIMENSIONI
 10
-1.762536873156278
 20
42.66889917825419
 30
0.0
  0
VERTEX
  5
4D1
  8
DIMENSIONI
 10
-1.837896386430615
 20
42.8148707859238
 30
0.0
  0
VERTEX
  5
4D2
  8
DIMENSIONI
 10
-1.903207964601706
 20
42.968124841971
 30
0.0
  0
VERTEX
  5
4D3
  8
DIMENSIONI
 10
-1.958471607669553
 20
43.12866134639578
 30
0.0
  0
VERTEX
  5
4D4
  8
DIMENSIONI
 10
-2.003687315634155
 20
43.29648029919814
 30
0.0
  0
VERTEX
  5
4D5
  8
DIMENSIONI
 10
-2.038855088495512
 20
43.47158170037808
 30
0.0
  0
VERTEX
  5
4D6
  8
DIMENSIONI
 10
-2.063974926253624
 20
43.65396554993561
 30
0.0
  0
VERTEX
  5
4D7
  8
DIMENSIONI
 10
-2.079046828908491
 20
43.84363184787071
 30
0.0
  0
SEQEND
  5
A77
  8
DIMENSIONI
  0
POLYLINE
  5
B1
  8
DIMENSIONI
 66
     1
 10
0.0
 20
0.0
 30
0.0
 70
     1
  0
VERTEX
  5
4D8
  8
DIMENSIONI
 10
-1.505899705014686
 20
43.96683428149903
 30
0.0
  0
VERTEX
  5
4D9
  8
DIMENSIONI
 10
-1.493178466076633
 20
43.57284460598281
 30
0.0
  0
VERTEX
  5
4DA
  8
DIMENSIONI
 10
-1.455014749262473
 20
43.21683428149903
 30
0.0
  0
VERTEX
  5
4DB
  8
DIMENSIONI
 10
-1.426391961651853
 20
43.05307137589431
 30
0.0
  0
VERTEX
  5
4DC
  8
DIMENSIONI
 10
-1.391408554572207
 20
42.8988033080477
 30
0.0
  0
VERTEX
  5
4DD
  8
DIMENSIONI
 10
-1.350064528023535
 20
42.7540300779592
 30
0.0
  0
VERTEX
  5
4DE
  8
DIMENSIONI
 10
-1.302359882005836
 20
42.61875168562882
 30
0.0
  0
VERTEX
  5
4DF
  8
DIMENSIONI
 10
-1.257743362831794
 20
42.51573730509786
 30
0.0
  0
VERTEX
  5
4E0
  8
DIMENSIONI
 10
-1.207964601769848
 20
42.42645817530434
 30
0.0
  0
VERTEX
  5
4E1
  8
DIMENSIONI
 10
-1.153023598819995
 20
42.35091429624829
 30
0.0
  0
VERTEX
  5
4E2
  8
DIMENSIONI
 10
-1.092920353982237
 20
42.2891056679297
 30
0.0
  0
VERTEX
  5
4E3
  8
DIMENSIONI
 10
-1.027654867256573
 20
42.24103229034858
 30
0.0
  0
VERTEX
  5
4E4
  8
DIMENSIONI
 10
-0.9572271386430042
 20
42.20669416350492
 30
0.0
  0
VERTEX
  5
4E5
  8
DIMENSIONI
 10
-0.8816371681415294
 20
42.18609128739873
 30
0.0
  0
VERTEX
  5
4E6
  8
DIMENSIONI
 10
-0.8008849557521487
 20
42.17922366203
 30
0.0
  0
VERTEX
  5
4E7
  8
DIMENSIONI
 10
-0.72050147492619
 20
42.18816540244298
 30
0.0
  0
VERTEX
  5
4E8
  8
DIMENSIONI
 10
-0.638643067846544
 20
42.21499062368191
 30
0.0
  0
VERTEX
  5
4E9
  8
DIMENSIONI
 10
-0.5553097345132106
 20
42.25969932574681
 30
0.0
  0
VERTEX
  5
4EA
  8
DIMENSIONI
 10
-0.47050147492619
 20
42.32229150863767
 30
0.0
  0
VERTEX
  5
4EB
  8
DIMENSIONI
 10
-0.3901179941002312
 20
42.40590139064357
 30
0.0
  0
VERTEX
  5
4EC
  8
DIMENSIONI
 10
-0.3200589970500837
 20
42.5136631900536
 30
0.0
  0
VERTEX
  5
4ED
  8
DIMENSIONI
 10
-0.2603244837757474
 20
42.64557690686776
 30
0.0
  0
VERTEX
  5
4EE
  8
DIMENSIONI
 10
-0.2109144542772223
 20
42.80164254108605
 30
0.0
  0
VERTEX
  5
4EF
  8
DIMENSIONI
 10
-0.1515486725663081
 20
43.08132543194151
 30
0.0
  0
VERTEX
  5
4F0
  8
DIMENSIONI
 10
-0.1091445427727977
 20
43.41299947323944
 30
0.0
  0
VERTEX
  5
4F1
  8
DIMENSIONI
 10
-0.0837020648966915
 20
43.79666466497985
 30
0.0
  0
VERTEX
  5
4F2
  8
DIMENSIONI
 10
-0.0752212389379894
 20
44.23232100716275
 30
0.0
  0
VERTEX
  5
4F3
  8
DIMENSIONI
 10
-0.0840707964601133
 20
44.56030773282646
 30
0.0
  0
VERTEX
  5
4F4
  8
DIMENSIONI
 10
-0.1106194690264851
 20
44.8599021281067
 30
0.0
  0
VERTEX
  5
4F5
  8
DIMENSIONI
 10
-0.1548672566371046
 20
45.13110419300345
 30
0.0
  0
VERTEX
  5
4F6
  8
DIMENSIONI
 10
-0.2168141592919719
 20
45.37391392751672
 30
0.0
  0
VERTEX
  5
4F7
  8
DIMENSIONI
 10
-0.2737831858406443
 20
45.53117793931613
 30
0.0
  0
VERTEX
  5
4F8
  8
DIMENSIONI
 10
-0.3384955752211752
 20
45.66373693636628
 30
0.0
  0
VERTEX
  5
4F9
  8
DIMENSIONI
 10
-0.4109513274335646
 20
45.77159091866716
 30
0.0
  0
VERTEX
  5
4FA
  8
DIMENSIONI
 10
-0.4911504424778124
 20
45.85473988621879
 30
0.0
  0
VERTEX
  5
4FB
  8
DIMENSIONI
 10
-0.5547566371680779
 20
45.89732838179401
 30
0.0
  0
VERTEX
  5
4FC
  8
DIMENSIONI
 10
-0.6246312684365145
 20
45.92774873577631
 30
0.0
  0
VERTEX
  5
4FD
  8
DIMENSIONI
 10
-0.7007743362831221
 20
45.94600094816569
 30
0.0
  0
VERTEX
  5
4FE
  8
DIMENSIONI
 10
-0.7831858407079009
 20
45.95208501896215
 30
0.0
  0
VERTEX
  5
4FF
  8
DIMENSIONI
 10
-0.8807153392329745
 20
45.94083870627779
 30
0.0
  0
VERTEX
  5
500
  8
DIMENSIONI
 10
-0.9727138643067209
 20
45.90709976822469
 30
0.0
  0
VERTEX
  5
501
  8
DIMENSIONI
 10
-1.05918141592914
 20
45.85086820480286
 30
0.0
  0
VERTEX
  5
502
  8
DIMENSIONI
 10
-1.140117994100231
 20
45.7721440160123
 30
0.0
  0
VERTEX
  5
503
  8
DIMENSIONI
 10
-1.191095132743299
 20
45.70655588916864
 30
0.0
  0
VERTEX
  5
504
  8
DIMENSIONI
 10
-1.237831858407016
 20
45.63221038769372
 30
0.0
  0
VERTEX
  5
505
  8
DIMENSIONI
 10
-1.280328171091382
 20
45.54910751158752
 30
0.0
  0
VERTEX
  5
506
  8
DIMENSIONI
 10
-1.318584070796397
 20
45.45724726085006
 30
0.0
  0
VERTEX
  5
507
  8
DIMENSIONI
 10
-1.382374631268373
 20
45.24725463548133
 30
0.0
  0
VERTEX
  5
508
  8
DIMENSIONI
 10
-1.429203539822945
 20
45.00223251158752
 30
0.0
  0
VERTEX
  5
509
  8
DIMENSIONI
 10
-1.462758112094332
 20
44.74061746733973
 30
0.0
  0
VERTEX
  5
50A
  8
DIMENSIONI
 10
-1.48672566371675
 20
44.48084608090906
 30
0.0
  0
VERTEX
  5
50B
  8
DIMENSIONI
 10
-1.501106194690202
 20
44.22291835229548
 30
0.0
  0
SEQEND
  5
A78
  8
DIMENSIONI
  0
POLYLINE
  5
B2
  8
DIMENSIONI
 66
     1
 10
0.0
 20
0.0
 30
0.0
 70
     1
  0
VERTEX
  5
50C
  8
DIMENSIONI
 10
1.473451327433692
 20
42.63645080067307
 30
0.0
  0
VERTEX
  5
50D
  8
DIMENSIONI
 10
1.540007374631333
 20
42.63045891276747
 30
0.0
  0
VERTEX
  5
50E
  8
DIMENSIONI
 10
1.601032448377645
 20
42.61248324905065
 30
0.0
  0
VERTEX
  5
50F
  8
DIMENSIONI
 10
1.65652654867263
 20
42.58252380952262
 30
0.0
  0
VERTEX
  5
510
  8
DIMENSIONI
 10
1.706489675516288
 20
42.54058059418339
 30
0.0
  0
VERTEX
  5
511
  8
DIMENSIONI
 10
1.747787610619533
 20
42.49015655288545
 30
0.0
  0
VERTEX
  5
512
  8
DIMENSIONI
 10
1.777286135693279
 20
42.43475463548133
 30
0.0
  0
VERTEX
  5
513
  8
DIMENSIONI
 10
1.794985250737527
 20
42.374374841971
 30
0.0
  0
VERTEX
  5
514
  8
DIMENSIONI
 10
1.800884955752277
 20
42.30901717235449
 30
0.0
  0
VERTEX
  5
515
  8
DIMENSIONI
 10
1.794893067846672
 20
42.24365950273797
 30
0.0
  0
VERTEX
  5
516
  8
DIMENSIONI
 10
1.776917404129858
 20
42.18327970922764
 30
0.0
  0
VERTEX
  5
517
  8
DIMENSIONI
 10
1.746957964601834
 20
42.12787779182351
 30
0.0
  0
VERTEX
  5
518
  8
DIMENSIONI
 10
1.705014749262601
 20
42.07745375052558
 30
0.0
  0
VERTEX
  5
519
  8
DIMENSIONI
 10
1.654590707964666
 20
42.03551053518634
 30
0.0
  0
VERTEX
  5
51A
  8
DIMENSIONI
 10
1.599188790560536
 20
42.00555109565832
 30
0.0
  0
VERTEX
  5
51B
  8
DIMENSIONI
 10
1.538808997050212
 20
41.98757543194151
 30
0.0
  0
VERTEX
  5
51C
  8
DIMENSIONI
 10
1.473451327433692
 20
41.9815835440359
 30
0.0
  0
VERTEX
  5
51D
  8
DIMENSIONI
 10
1.408093657817173
 20
41.98757543194151
 30
0.0
  0
VERTEX
  5
51E
  8
DIMENSIONI
 10
1.347713864306848
 20
42.00555109565832
 30
0.0
  0
VERTEX
  5
51F
  8
DIMENSIONI
 10
1.292311946902719
 20
42.03551053518634
 30
0.0
  0
VERTEX
  5
520
  8
DIMENSIONI
 10
1.241887905604784
 20
42.07745375052558
 30
0.0
  0
VERTEX
  5
521
  8
DIMENSIONI
 10
1.199944690265551
 20
42.12787779182351
 30
0.0
  0
VERTEX
  5
522
  8
DIMENSIONI
 10
1.169985250737527
 20
42.18327970922764
 30
0.0
  0
VERTEX
  5
523
  8
DIMENSIONI
 10
1.152009587020713
 20
42.24365950273797
 30
0.0
  0
VERTEX
  5
524
  8
DIMENSIONI
 10
1.146017699115108
 20
42.30901717235449
 30
0.0
  0
VERTEX
  5
525
  8
DIMENSIONI
 10
1.152009587020713
 20
42.37557321955212
 30
0.0
  0
VERTEX
  5
526
  8
DIMENSIONI
 10
1.169985250737527
 20
42.43659829329843
 30
0.0
  0
VERTEX
  5
527
  8
DIMENSIONI
 10
1.199944690265551
 20
42.49209239359342
 30
0.0
  0
VERTEX
  5
528
  8
DIMENSIONI
 10
1.241887905604784
 20
42.54205552043708
 30
0.0
  0
VERTEX
  5
529
  8
DIMENSIONI
 10
1.292311946902719
 20
42.58335345554033
 30
0.0
  0
VERTEX
  5
52A
  8
DIMENSIONI
 10
1.347713864306848
 20
42.61285198061407
 30
0.0
  0
VERTEX
  5
52B
  8
DIMENSIONI
 10
1.408093657817173
 20
42.63055109565832
 30
0.0
  0
SEQEND
  5
A79
  8
DIMENSIONI
  0
POLYLINE
  5
B3
  8
DIMENSIONI
 66
     1
 10
0.0
 20
0.0
 30
0.0
 70
     1
  0
VERTEX
  5
52C
  8
DIMENSIONI
 10
2.44690265486732
 20
44.04058059418339
 30
0.0
  0
VERTEX
  5
52D
  8
DIMENSIONI
 10
2.459808259587084
 20
44.3708718921185
 30
0.0
  0
VERTEX
  5
52E
  8
DIMENSIONI
 10
2.498525073746376
 20
44.67738000421289
 30
0.0
  0
VERTEX
  5
52F
  8
DIMENSIONI
 10
2.527562684365845
 20
44.82171536556982
 30
0.0
  0
VERTEX
  5
530
  8
DIMENSIONI
 10
2.563053097345197
 20
44.96010493046658
 30
0.0
  0
VERTEX
  5
531
  8
DIMENSIONI
 10
2.604996312684429
 20
45.09254869890315
 30
0.0
  0
VERTEX
  5
532
  8
DIMENSIONI
 10
2.653392330383545
 20
45.21904667087956
 30
0.0
  0
VERTEX
  5
533
  8
DIMENSIONI
 10
2.765117994100359
 20
45.4503335440359
 30
0.0
  0
VERTEX
  5
534
  8
DIMENSIONI
 10
2.827341445427793
 20
45.55415452486186
 30
0.0
  0
VERTEX
  5
535
  8
DIMENSIONI
 10
2.893805309734577
 20
45.65009386851968
 30
0.0
  0
VERTEX
  5
536
  8
DIMENSIONI
 10
2.964509587020713
 20
45.73815157500935
 30
0.0
  0
VERTEX
  5
537
  8
DIMENSIONI
 10
3.039454277286199
 20
45.81832764433089
 30
0.0
  0
VERTEX
  5
538
  8
DIMENSIONI
 10
3.118639380531037
 20
45.89062207648428
 30
0.0
  0
VERTEX
  5
539
  8
DIMENSIONI
 10
3.202064896755226
 20
45.95503487146953
 30
0.0
  0
VERTEX
  5
53A
  8
DIMENSIONI
 10
3.33591445427735
 20
46.038921302148
 30
0.0
  0
VERTEX
  5
53B
  8
DIMENSIONI
 10
3.471976401180005
 20
46.09884018120405
 30
0.0
  0
VERTEX
  5
53C
  8
DIMENSIONI
 10
3.610250737463191
 20
46.13479150863767
 30
0.0
  0
VERTEX
  5
53D
  8
DIMENSIONI
 10
3.750737463126907
 20
46.14677528444888
 30
0.0
  0
VERTEX
  5
53E
  8
DIMENSIONI
 10
3.864306784660831
 20
46.13944674462587
 30
0.0
  0
VERTEX
  5
53F
  8
DIMENSIONI
 10
3.974926253687379
 20
46.11746112515684
 30
0.0
  0
VERTEX
  5
540
  8
DIMENSIONI
 10
4.082595870206553
 20
46.0808184260418
 30
0.0
  0
VERTEX
  5
541
  8
DIMENSIONI
 10
4.187315634218352
 20
46.02951864728074
 30
0.0
  0
VERTEX
  5
542
  8
DIMENSIONI
 10
4.289085545722777
 20
45.96356178887366
 30
0.0
  0
VERTEX
  5
543
  8
DIMENSIONI
 10
4.387905604719827
 20
45.88294785082056
 30
0.0
  0
VERTEX
  5
544
  8
DIMENSIONI
 10
4.483775811209503
 20
45.78767683312145
 30
0.0
  0
VERTEX
  5
545
  8
DIMENSIONI
 10
4.576696165191803
 20
45.67774873577631
 30
0.0
  0
VERTEX
  5
546
  8
DIMENSIONI
 10
4.683858775811273
 20
45.52601569742824
 30
0.0
  0
VERTEX
  5
547
  8
DIMENSIONI
 10
4.776733038348146
 20
45.36137705436039
 30
0.0
  0
VERTEX
  5
548
  8
DIMENSIONI
 10
4.855318952802423
 20
45.18383280657278
 30
0.0
  0
VERTEX
  5
549
  8
DIMENSIONI
 10
4.919616519174104
 20
44.9933829540654
 30
0.0
  0
VERTEX
  5
54A
  8
DIMENSIONI
 10
4.96962573746319
 20
44.79002749683826
 30
0.0
  0
VERTEX
  5
54B
  8
DIMENSIONI
 10
5.005346607669679
 20
44.57376643489136
 30
0.0
  0
VERTEX
  5
54C
  8
DIMENSIONI
 10
5.026779129793574
 20
44.34459976822469
 30
0.0
  0
VERTEX
  5
54D
  8
DIMENSIONI
 10
5.033923303834872
 20
44.10252749683826
 30
0.0
  0
VERTEX
  5
54E
  8
DIMENSIONI
 10
5.02138643067853
 20
43.76753487146952
 30
0.0
  0
VERTEX
  5
54F
  8
DIMENSIONI
 10
4.983775811209503
 20
43.45872218710375
 30
0.0
  0
VERTEX
  5
550
  8
DIMENSIONI
 10
4.955567846607734
 20
43.31413332279696
 30
0.0
  0
VERTEX
  5
551
  8
DIMENSIONI
 10
4.921091445427792
 20
43.17608944374091
 30
0.0
  0
VERTEX
  5
552
  8
DIMENSIONI
 10
4.88034660766968
 20
43.04459054993561
 30
0.0
  0
VERTEX
  5
553
  8
DIMENSIONI
 10
4.833333333333397
 20
42.91963664138103
 30
0.0
  0
VERTEX
  5
554
  8
DIMENSIONI
 10
4.726124631268501
 20
42.69295891276747
 30
0.0
  0
VERTEX
  5
555
  8
DIMENSIONI
 10
4.605088495575286
 20
42.49965139064357
 30
0.0
  0
VERTEX
  5
556
  8
DIMENSIONI
 10
4.539385140118059
 20
42.41551145701526
 30
0.0
  0
VERTEX
  5
557
  8
DIMENSIONI
 10
4.470224926253751
 20
42.33971407500935
 30
0.0
  0
VERTEX
  5
558
  8
DIMENSIONI
 10
4.397607853982365
 20
42.27225924462586
 30
0.0
  0
VERTEX
  5
559
  8
DIMENSIONI
 10
4.321533923303898
 20
42.21314696586481
 30
0.0
  0
VERTEX
  5
55A
  8
DIMENSIONI
 10
4.167311946902718
 20
42.11700021070256
 30
0.0
  0
VERTEX
  5
55B
  8
DIMENSIONI
 10
4.015855457227202
 20
42.04832395701524
 30
0.0
  0
VERTEX
  5
55C
  8
DIMENSIONI
 10
3.86716445427735
 20
42.00711820480286
 30
0.0
  0
VERTEX
  5
55D
  8
DIMENSIONI
 10
3.721238938053161
 20
41.9933829540654
 30
0.0
  0
VERTEX
  5
55E
  8
DIMENSIONI
 10
3.581167035398293
 20
42.00393789506835
 30
0.0
  0
VERTEX
  5
55F
  8
DIMENSIONI
 10
3.447087020649031
 20
42.03560271807719
 30
0.0
  0
VERTEX
  5
560
  8
DIMENSIONI
 10
3.318998893805373
 20
42.08837742309194
 30
0.0
  0
VERTEX
  5
561
  8
DIMENSIONI
 10
3.196902654867321
 20
42.16226201011259
 30
0.0
  0
VERTEX
  5
562
  8
DIMENSIONI
 10
3.080798303834872
 20
42.25725647913914
 30
0.0
  0
VERTEX
  5
563
  8
DIMENSIONI
 10
2.970685840708028
 20
42.37336083017159
 30
0.0
  0
VERTEX
  5
564
  8
DIMENSIONI
 10
2.866565265486789
 20
42.51057506320994
 30
0.0
  0
VERTEX
  5
565
  8
DIMENSIONI
 10
2.768436578171155
 20
42.66889917825419
 30
0.0
  0
VERTEX
  5
566
  8
DIMENSIONI
 10
2.693077064896818
 20
42.8148707859238
 30
0.0
  0
VERTEX
  5
567
  8
DIMENSIONI
 10
2.627765486725727
 20
42.968124841971
 30
0.0
  0
VERTEX
  5
568
  8
DIMENSIONI
 10
2.572501843657881
 20
43.12866134639578
 30
0.0
  0
VERTEX
  5
569
  8
DIMENSIONI
 10
2.527286135693279
 20
43.29648029919814
 30
0.0
  0
VERTEX
  5
56A
  8
DIMENSIONI
 10
2.492118362831921
 20
43.47158170037808
 30
0.0
  0
VERTEX
  5
56B
  8
DIMENSIONI
 10
2.46699852507381
 20
43.65396554993561
 30
0.0
  0
VERTEX
  5
56C
  8
DIMENSIONI
 10
2.451926622418942
 20
43.84363184787071
 30
0.0
  0
SEQEND
  5
A7A
  8
DIMENSIONI
  0
POLYLINE
  5
B4
  8
DIMENSIONI
 66
     1
 10
0.0
 20
0.0
 30
0.0
 70
     1
  0
VERTEX
  5
56D
  8
DIMENSIONI
 10
3.025073746312748
 20
43.96683428149903
 30
0.0
  0
VERTEX
  5
56E
  8
DIMENSIONI
 10
3.037794985250801
 20
43.57284460598281
 30
0.0
  0
VERTEX
  5
56F
  8
DIMENSIONI
 10
3.07595870206496
 20
43.21683428149903
 30
0.0
  0
VERTEX
  5
570
  8
DIMENSIONI
 10
3.10458148967558
 20
43.05307137589431
 30
0.0
  0
VERTEX
  5
571
  8
DIMENSIONI
 10
3.139564896755226
 20
42.8988033080477
 30
0.0
  0
VERTEX
  5
572
  8
DIMENSIONI
 10
3.180908923303898
 20
42.7540300779592
 30
0.0
  0
VERTEX
  5
573
  8
DIMENSIONI
 10
3.228613569321598
 20
42.61875168562882
 30
0.0
  0
VERTEX
  5
574
  8
DIMENSIONI
 10
3.273230088495639
 20
42.51573730509786
 30
0.0
  0
VERTEX
  5
575
  8
DIMENSIONI
 10
3.323008849557586
 20
42.42645817530434
 30
0.0
  0
VERTEX
  5
576
  8
DIMENSIONI
 10
3.377949852507438
 20
42.35091429624829
 30
0.0
  0
VERTEX
  5
577
  8
DIMENSIONI
 10
3.438053097345196
 20
42.2891056679297
 30
0.0
  0
VERTEX
  5
578
  8
DIMENSIONI
 10
3.50331858407086
 20
42.24103229034858
 30
0.0
  0
VERTEX
  5
579
  8
DIMENSIONI
 10
3.573746312684429
 20
42.20669416350492
 30
0.0
  0
VERTEX
  5
57A
  8
DIMENSIONI
 10
3.649336283185904
 20
42.18609128739873
 30
0.0
  0
VERTEX
  5
57B
  8
DIMENSIONI
 10
3.730088495575285
 20
42.17922366203
 30
0.0
  0
VERTEX
  5
57C
  8
DIMENSIONI
 10
3.810471976401244
 20
42.18816540244298
 30
0.0
  0
VERTEX
  5
57D
  8
DIMENSIONI
 10
3.89233038348089
 20
42.21499062368191
 30
0.0
  0
VERTEX
  5
57E
  8
DIMENSIONI
 10
3.975663716814223
 20
42.25969932574681
 30
0.0
  0
VERTEX
  5
57F
  8
DIMENSIONI
 10
4.060471976401244
 20
42.32229150863767
 30
0.0
  0
VERTEX
  5
580
  8
DIMENSIONI
 10
4.140855457227203
 20
42.40590139064357
 30
0.0
  0
VERTEX
  5
581
  8
DIMENSIONI
 10
4.21091445427735
 20
42.5136631900536
 30
0.0
  0
VERTEX
  5
582
  8
DIMENSIONI
 10
4.270648967551686
 20
42.64557690686776
 30
0.0
  0
VERTEX
  5
583
  8
DIMENSIONI
 10
4.320058997050211
 20
42.80164254108605
 30
0.0
  0
VERTEX
  5
584
  8
DIMENSIONI
 10
4.379424778761125
 20
43.08132543194151
 30
0.0
  0
VERTEX
  5
585
  8
DIMENSIONI
 10
4.421828908554636
 20
43.41299947323944
 30
0.0
  0
VERTEX
  5
586
  8
DIMENSIONI
 10
4.447271386430742
 20
43.79666466497985
 30
0.0
  0
VERTEX
  5
587
  8
DIMENSIONI
 10
4.455752212389444
 20
44.23232100716275
 30
0.0
  0
VERTEX
  5
588
  8
DIMENSIONI
 10
4.44690265486732
 20
44.56030773282646
 30
0.0
  0
VERTEX
  5
589
  8
DIMENSIONI
 10
4.420353982300949
 20
44.8599021281067
 30
0.0
  0
VERTEX
  5
58A
  8
DIMENSIONI
 10
4.37610619469033
 20
45.13110419300345
 30
0.0
  0
VERTEX
  5
58B
  8
DIMENSIONI
 10
4.314159292035462
 20
45.37391392751672
 30
0.0
  0
VERTEX
  5
58C
  8
DIMENSIONI
 10
4.257190265486789
 20
45.53117793931613
 30
0.0
  0
VERTEX
  5
58D
  8
DIMENSIONI
 10
4.192477876106259
 20
45.66373693636628
 30
0.0
  0
VERTEX
  5
58E
  8
DIMENSIONI
 10
4.12002212389387
 20
45.77159091866716
 30
0.0
  0
VERTEX
  5
58F
  8
DIMENSIONI
 10
4.039823008849622
 20
45.85473988621879
 30
0.0
  0
VERTEX
  5
590
  8
DIMENSIONI
 10
3.976216814159355
 20
45.89732838179401
 30
0.0
  0
VERTEX
  5
591
  8
DIMENSIONI
 10
3.906342182890919
 20
45.92774873577631
 30
0.0
  0
VERTEX
  5
592
  8
DIMENSIONI
 10
3.830199115044311
 20
45.94600094816569
 30
0.0
  0
VERTEX
  5
593
  8
DIMENSIONI
 10
3.747787610619532
 20
45.95208501896215
 30
0.0
  0
VERTEX
  5
594
  8
DIMENSIONI
 10
3.650258112094459
 20
45.94083870627779
 30
0.0
  0
VERTEX
  5
595
  8
DIMENSIONI
 10
3.558259587020713
 20
45.90709976822469
 30
0.0
  0
VERTEX
  5
596
  8
DIMENSIONI
 10
3.471792035398294
 20
45.85086820480286
 30
0.0
  0
VERTEX
  5
597
  8
DIMENSIONI
 10
3.390855457227202
 20
45.7721440160123
 30
0.0
  0
VERTEX
  5
598
  8
DIMENSIONI
 10
3.339878318584134
 20
45.70655588916864
 30
0.0
  0
VERTEX
  5
599
  8
DIMENSIONI
 10
3.293141592920417
 20
45.63221038769372
 30
0.0
  0
VERTEX
  5
59A
  8
DIMENSIONI
 10
3.250645280236052
 20
45.54910751158752
 30
0.0
  0
VERTEX
  5
59B
  8
DIMENSIONI
 10
3.212389380531037
 20
45.45724726085006
 30
0.0
  0
VERTEX
  5
59C
  8
DIMENSIONI
 10
3.14859882005906
 20
45.24725463548133
 30
0.0
  0
VERTEX
  5
59D
  8
DIMENSIONI
 10
3.101769911504488
 20
45.00223251158752
 30
0.0
  0
VERTEX
  5
59E
  8
DIMENSIONI
 10
3.068215339233102
 20
44.74061746733973
 30
0.0
  0
VERTEX
  5
59F
  8
DIMENSIONI
 10
3.044247787610683
 20
44.48084608090906
 30
0.0
  0
VERTEX
  5
5A0
  8
DIMENSIONI
 10
3.029867256637232
 20
44.22291835229548
 30
0.0
  0
SEQEND
  5
A7B
  8
DIMENSIONI
  0
POLYLINE
  5
B5
  8
DIMENSIONI
 66
     1
 10
0.0
 20
0.0
 30
0.0
  0
VERTEX
  5
5A1
  8
DIMENSIONI
 10
-21.76393202250015
 20
44.14677528444895
 30
0.0
  0
VERTEX
  5
5A2
  8
DIMENSIONI
 10
-5.533923303834744
 20
44.1467752844489
 30
0.0
  0
SEQEND
  5
A7C
  8
DIMENSIONI
  0
POLYLINE
  5
B6
  8
DIMENSIONI
 66
     1
 10
0.0
 20
0.0
 30
0.0
  0
VERTEX
  5
5A3
  8
DIMENSIONI
 10
5.533923303834868
 20
44.14677528444886
 30
0.0
  0
VERTEX
  5
5A4
  8
DIMENSIONI
 10
21.76393202250028
 20
44.14677528444881
 30
0.0
  0
SEQEND
  5
A7D
  8
DIMENSIONI
  0
POLYLINE
  5
B7
  8
DIMENSIONI
 66
     1
 10
0.0
 20
0.0
 30
0.0
  0
VERTEX
  5
5A5
  8
DIMENSIONI
 10
-25.0
 20
27.50000000000017
 30
0.0
  0
VERTEX
  5
5A6
  8
DIMENSIONI
 10
-24.99999999999993
 20
46.14677528444896
 30
0.0
  0
SEQEND
  5
A7E
  8
DIMENSIONI
  0
POLYLINE
  5
B8
  8
DIMENSIONI
 66
     1
 10
0.0
 20
0.0
 30
0.0
  0
VERTEX
  5
5A7
  8
DIMENSIONI
 10
25.00000000000001
 20
27.5
 30
0.0
  0
VERTEX
  5
5A8
  8
DIMENSIONI
 10
25.00000000000007
 20
46.14677528444879
 30
0.0
  0
SEQEND
  5
A7F
  8
DIMENSIONI
  0
POLYLINE
  5
B9
  8
DIMENSIONI
 66
     1
 10
0.0
 20
0.0
 30
0.0
  0
VERTEX
  5
5A9
  8
DIMENSIONI
 10
-24.99999999999994
 20
44.14677528444896
 30
0.0
  0
VERTEX
  5
5AA
  8
DIMENSIONI
 10
-21.76393202250015
 20
43.14677528444895
 30
0.0
  0
SEQEND
  5
A80
  8
DIMENSIONI
  0
POLYLINE
  5
BA
  8
DIMENSIONI
 66
     1
 10
0.0
 20
0.0
 30
0.0
  0
VERTEX
  5
5AB
  8
DIMENSIONI
 10
-21.76393202250015
 20
43.14677528444895
 30
0.0
  0
VERTEX
  5
5AC
  8
DIMENSIONI
 10
-21.76393202250015
 20
45.14677528444895
 30
0.0
  0
SEQEND
  5
A81
  8
DIMENSIONI
  0
POLYLINE
  5
BB
  8
DIMENSIONI
 66
     1
 10
0.0
 20
0.0
 30
0.0
  0
VERTEX
  5
5AD
  8
DIMENSIONI
 10
-21.76393202250015
 20
45.14677528444895
 30
0.0
  0
VERTEX
  5
5AE
  8
DIMENSIONI
 10
-24.99999999999994
 20
44.14677528444896
 30
0.0
  0
SEQEND
  5
A82
  8
DIMENSIONI
  0
POLYLINE
  5
BC
  8
DIMENSIONI
 66
     1
 10
0.0
 20
0.0
 30
0.0
  0
VERTEX
  5
5AF
  8
DIMENSIONI
 10
25.00000000000007
 20
44.14677528444879
 30
0.0
  0
VERTEX
  5
5B0
  8
DIMENSIONI
 10
21.76393202250028
 20
45.14677528444881
 30
0.0
  0
SEQEND
  5
A83
  8
DIMENSIONI
  0
POLYLINE
  5
BD
  8
DIMENSIONI
 66
     1
 10
0.0
 20
0.0
 30
0.0
  0
VERTEX
  5
5B1
  8
DIMENSIONI
 10
21.76393202250028
 20
45.14677528444881
 30
0.0
  0
VERTEX
  5
5B2
  8
DIMENSIONI
 10
21.76393202250027
 20
43.14677528444881
 30
0.0
  0
SEQEND
  5
A84
  8
DIMENSIONI
  0
POLYLINE
  5
BE
  8
DIMENSIONI
 66
     1
 10
0.0
 20
0.0
 30
0.0
  0
VERTEX
  5
5B3
  8
DIMENSIONI
 10
21.76393202250027
 20
43.14677528444881
 30
0.0
  0
VERTEX
  5
5B4
  8
DIMENSIONI
 10
25.00000000000007
 20
44.14677528444879
 30
0.0
  0
SEQEND
  5
A85
  8
DIMENSIONI
  0
POLYLINE
  5
BF
  8
DIMENSIONI
 66
     1
 10
0.0
 20
0.0
 30
0.0
 70
     1
  0
VERTEX
  5
5B5
  8
DIMENSIONI
 10
-68.56346893116036
 20
43.17108424173859
 30
0.0
  0
VERTEX
  5
5B6
  8
DIMENSIONI
 10
-68.84370491936096
 20
42.40117273731381
 30
0.0
  0
VERTEX
  5
5B7
  8
DIMENSIONI
 10
-71.20358692526067
 20
42.40117273731381
 30
0.0
  0
VERTEX
  5
5B8
  8
DIMENSIONI
 10
-71.20358692526067
 20
42.51031728008667
 30
0.0
  0
VERTEX
  5
5B9
  8
DIMENSIONI
 10
-70.72147040608662
 20
42.96348837153211
 30
0.0
  0
VERTEX
  5
5BA
  8
DIMENSIONI
 10
-70.31641878366774
 20
43.37314913849376
 30
0.0
  0
VERTEX
  5
5BB
  8
DIMENSIONI
 10
-69.98843205800404
 20
43.73929958097163
 30
0.0
  0
VERTEX
  5
5BC
  8
DIMENSIONI
 10
-69.85333803145534
 20
43.90605843052915
 30
0.0
  0
VERTEX
  5
5BD
  8
DIMENSIONI
 10
-69.73751022909546
 20
44.06193969896573
 30
0.0
  0
VERTEX
  5
5BE
  8
DIMENSIONI
 10
-69.63795270697157
 20
44.21076897625186
 30
0.0
  0
VERTEX
  5
5BF
  8
DIMENSIONI
 10
-69.55166952113088
 20
44.35637185235806
 30
0.0
  0
VERTEX
  5
5C0
  8
DIMENSIONI
 10
-69.47866067157335
 20
44.49874832728431
 30
0.0
  0
VERTEX
  5
5C1
  8
DIMENSIONI
 10
-69.41892615829902
 20
44.63789840103063
 30
0.0
  0
VERTEX
  5
5C2
  8
DIMENSIONI
 10
-69.37246598130787
 20
44.773822073597
 30
0.0
  0
VERTEX
  5
5C3
  8
DIMENSIONI
 10
-69.3392801405999
 20
44.90651934498343
 30
0.0
  0
VERTEX
  5
5C4
  8
DIMENSIONI
 10
-69.31936863617511
 20
45.03599021518992
 30
0.0
  0
VERTEX
  5
5C5
  8
DIMENSIONI
 10
-69.31273146803352
 20
45.16223468421647
 30
0.0
  0
VERTEX
  5
5C6
  8
DIMENSIONI
 10
-69.31637269222232
 20
45.25524722108963
 30
0.0
  0
VERTEX
  5
5C7
  8
DIMENSIONI
 10
-69.32729636478868
 20
45.34401934498344
 30
0.0
  0
VERTEX
  5
5C8
  8
DIMENSIONI
 10
-69.34550248573264
 20
45.42855105589788
 30
0.0
  0
VERTEX
  5
5C9
  8
DIMENSIONI
 10
-69.37099105505416
 20
45.50884235383299
 30
0.0
  0
VERTEX
  5
5CA
  8
DIMENSIONI
 10
-69.4037620727533
 20
45.58489323878874
 30
0.0
  0
VERTEX
  5
5CB
  8
DIMENSIONI
 10
-69.44381553883
 20
45.65670371076514
 30
0.0
  0
VERTEX
  5
5CC
  8
DIMENSIONI
 10
-69.49115145328427
 20
45.72427376976219
 30
0.0
  0
VERTEX
  5
5CD
  8
DIMENSIONI
 10
-69.54576981611612
 20
45.78760341577989
 30
0.0
  0
VERTEX
  5
5CE
  8
DIMENSIONI
 10
-69.60545823794502
 20
45.84498726533741
 30
0.0
  0
VERTEX
  5
5CF
  8
DIMENSIONI
 10
-69.66800432939044
 20
45.89471993495393
 30
0.0
  0
VERTEX
  5
5D0
  8
DIMENSIONI
 10
-69.7334080904524
 20
45.93680142462944
 30
0.0
  0
VERTEX
  5
5D1
  8
DIMENSIONI
 10
-69.80166952113086
 20
45.97123173436396
 30
0.0
  0
VERTEX
  5
5D2
  8
DIMENSIONI
 10
-69.87278862142585
 20
45.99801086415747
 30
0.0
  0
VERTEX
  5
5D3
  8
DIMENSIONI
 10
-69.94676539133735
 20
46.01713881400998
 30
0.0
  0
VERTEX
  5
5D4
  8
DIMENSIONI
 10
-70.02359983086538
 20
46.02861558392148
 30
0.0
  0
VERTEX
  5
5D5
  8
DIMENSIONI
 10
-70.10329194000992
 20
46.03244117389198
 30
0.0
  0
VERTEX
  5
5D6
  8
DIMENSIONI
 10
-70.24700506685357
 20
46.02165577566189
 30
0.0
  0
VERTEX
  5
5D7
  8
DIMENSIONI
 10
-70.3831591966471
 20
45.98929958097163
 30
0.0
  0
VERTEX
  5
5D8
  8
DIMENSIONI
 10
-70.51175432939046
 20
45.93537258982118
 30
0.0
  0
VERTEX
  5
5D9
  8
DIMENSIONI
 10
-70.63279046508367
 20
45.85987480221057
 30
0.0
  0
VERTEX
  5
5DA
  8
DIMENSIONI
 10
-70.7423959223108
 20
45.76354368126661
 30
0.0
  0
VERTEX
  5
5DB
  8
DIMENSIONI
 10
-70.83669901965594
 20
45.64711669011617
 30
0.0
  0
VERTEX
  5
5DC
  8
DIMENSIONI
 10
-70.91569975711907
 20
45.51059382875923
 30
0.0
  0
VERTEX
  5
5DD
  8
DIMENSIONI
 10
-70.97939813470019
 20
45.35397509719582
 30
0.0
  0
VERTEX
  5
5DE
  8
DIMENSIONI
 10
-71.08854267747304
 20
45.35397509719582
 30
0.0
  0
VERTEX
  5
5DF
  8
DIMENSIONI
 10
-71.06648792083588
 20
45.48644191135512
 30
0.0
  0
VERTEX
  5
5E0
  8
DIMENSIONI
 10
-71.03719680726655
 20
45.61098099690084
 30
0.0
  0
VERTEX
  5
5E1
  8
DIMENSIONI
 10
-71.00066933676509
 20
45.72759235383299
 30
0.0
  0
VERTEX
  5
5E2
  8
DIMENSIONI
 10
-70.95690550933145
 20
45.83627598215157
 30
0.0
  0
VERTEX
  5
5E3
  8
DIMENSIONI
 10
-70.90590532496567
 20
45.93703188185658
 30
0.0
  0
VERTEX
  5
5E4
  8
DIMENSIONI
 10
-70.84766878366773
 20
46.02986005294803
 30
0.0
  0
VERTEX
  5
5E5
  8
DIMENSIONI
 10
-70.78219588543764
 20
46.11476049542591
 30
0.0
  0
VERTEX
  5
5E6
  8
DIMENSIONI
 10
-70.7094866302754
 20
46.19173320929021
 30
0.0
  0
VERTEX
  5
5E7
  8
DIMENSIONI
 10
-70.63078548720756
 20
46.26017900575039
 30
0.0
  0
VERTEX
  5
5E8
  8
DIMENSIONI
 10
-70.54733692526065
 20
46.31949869601588
 30
0.0
  0
VERTEX
  5
5E9
  8
DIMENSIONI
 10
-70.4591409444347
 20
46.36969228008667
 30
0.0
  0
VERTEX
  5
5EA
  8
DIMENSIONI
 10
-70.36619754472967
 20
46.41075975796278
 30
0.0
  0
VERTEX
  5
5EB
  8
DIMENSIONI
 10
-70.2685067261456
 20
46.44270112964419
 30
0.0
  0
VERTEX
  5
5EC
  8
DIMENSIONI
 10
-70.16606848868248
 20
46.46551639513092
 30
0.0
  0
VERTEX
  5
5ED
  8
DIMENSIONI
 10
-70.0588828323403
 20
46.47920555442295
 30
0.0
  0
VERTEX
  5
5EE
  8
DIMENSIONI
 10
-69.94694975711907
 20
46.4837686075203
 30
0.0
  0
VERTEX
  5
5EF
  8
DIMENSIONI
 10
-69.82778032496569
 20
46.47888291430497
 30
0.0
  0
VERTEX
  5
5F0
  8
DIMENSIONI
 10
-69.7136348603639
 20
46.46422583465895
 30
0.0
  0
VERTEX
  5
5F1
  8
DIMENSIONI
 10
-69.60451336331374
 20
46.43979736858225
 30
0.0
  0
VERTEX
  5
5F2
  8
DIMENSIONI
 10
-69.50041583381523
 20
46.40559751607488
 30
0.0
  0
VERTEX
  5
5F3
  8
DIMENSIONI
 10
-69.40134227186833
 20
46.36162627713683
 30
0.0
  0
VERTEX
  5
5F4
  8
DIMENSIONI
 10
-69.30729267747304
 20
46.30788365176809
 30
0.0
  0
VERTEX
  5
5F5
  8
DIMENSIONI
 10
-69.21826705062938
 20
46.24436963996869
 30
0.0
  0
VERTEX
  5
5F6
  8
DIMENSIONI
 10
-69.13426539133735
 20
46.17108424173859
 30
0.0
  0
VERTEX
  5
5F7
  8
DIMENSIONI
 10
-69.05786882054089
 20
46.09116167536691
 30
0.0
  0
VERTEX
  5
5F8
  8
DIMENSIONI
 10
-68.99165845918397
 20
46.00773615914272
 30
0.0
  0
VERTEX
  5
5F9
  8
DIMENSIONI
 10
-68.93563430726655
 20
45.92080769306602
 30
0.0
  0
VERTEX
  5
5FA
  8
DIMENSIONI
 10
-68.88979636478868
 20
45.83037627713682
 30
0.0
  0
VERTEX
  5
5FB
  8
DIMENSIONI
 10
-68.85414463175033
 20
45.7364419113551
 30
0.0
  0
VERTEX
  5
5FC
  8
DIMENSIONI
 10
-68.82867910815152
 20
45.63900459572089
 30
0.0
  0
VERTEX
  5
5FD
  8
DIMENSIONI
 10
-68.81339979399222
 20
45.53806433023416
 30
0.0
  0
VERTEX
  5
5FE
  8
DIMENSIONI
 10
-68.80830668927246
 20
45.43362111489493
 30
0.0
  0
VERTEX
  5
5FF
  8
DIMENSIONI
 10
-68.81715624679458
 20
45.28170371076514
 30
0.0
  0
VERTEX
  5
600
  8
DIMENSIONI
 10
-68.84370491936096
 20
45.12978630663535
 30
0.0
  0
VERTEX
  5
601
  8
DIMENSIONI
 10
-68.88795270697159
 20
44.97786890250556
 30
0.0
  0
VERTEX
  5
602
  8
DIMENSIONI
 10
-68.94989960962644
 20
44.82595149837576
 30
0.0
  0
VERTEX
  5
603
  8
DIMENSIONI
 10
-69.07600580431671
 20
44.58351049542591
 30
0.0
  0
VERTEX
  5
604
  8
DIMENSIONI
 10
-69.23603530284178
 20
44.33406359277105
 30
0.0
  0
VERTEX
  5
605
  8
DIMENSIONI
 10
-69.42998810520166
 20
44.07761079041116
 30
0.0
  0
VERTEX
  5
606
  8
DIMENSIONI
 10
-69.65786421139636
 20
43.81415208834626
 30
0.0
  0
VERTEX
  5
607
  8
DIMENSIONI
 10
-70.25447188101288
 20
43.17108424173859
 30
0.0
  0
VERTEX
  5
608
  8
DIMENSIONI
 10
-70.57526834118987
 20
42.84660046592738
 30
0.0
  0
VERTEX
  5
609
  8
DIMENSIONI
 10
-69.53102055357924
 20
42.84660046592738
 30
0.0
  0
VERTEX
  5
60A
  8
DIMENSIONI
 10
-69.2600028544642
 20
42.85250017094213
 30
0.0
  0
VERTEX
  5
60B
  8
DIMENSIONI
 10
-69.08411789871198
 20
42.87019928598638
 30
0.0
  0
VERTEX
  5
60C
  8
DIMENSIONI
 10
-68.96206775121937
 20
42.9059662476383
 30
0.0
  0
VERTEX
  5
60D
  8
DIMENSIONI
 10
-68.85255447688309
 20
42.96606949247606
 30
0.0
  0
VERTEX
  5
60E
  8
DIMENSIONI
 10
-68.80259135003942
 20
43.00598468421646
 30
0.0
  0
VERTEX
  5
60F
  8
DIMENSIONI
 10
-68.75594680726655
 20
43.05345887300702
 30
0.0
  0
VERTEX
  5
610
  8
DIMENSIONI
 10
-68.67261347393323
 20
43.17108424173859
 30
0.0
  0
SEQEND
  5
A86
  8
DIMENSIONI
  0
POLYLINE
  5
C0
  8
DIMENSIONI
 66
     1
 10
0.0
 20
0.0
 30
0.0
 70
     1
  0
VERTEX
  5
611
  8
DIMENSIONI
 10
-65.54281996360874
 20
43.17108424173859
 30
0.0
  0
VERTEX
  5
612
  8
DIMENSIONI
 10
-65.82305595180934
 20
42.40117273731381
 30
0.0
  0
VERTEX
  5
613
  8
DIMENSIONI
 10
-68.18293795770904
 20
42.40117273731381
 30
0.0
  0
VERTEX
  5
614
  8
DIMENSIONI
 10
-68.18293795770904
 20
42.51031728008667
 30
0.0
  0
VERTEX
  5
615
  8
DIMENSIONI
 10
-67.700821438535
 20
42.96348837153211
 30
0.0
  0
VERTEX
  5
616
  8
DIMENSIONI
 10
-67.29576981611612
 20
43.37314913849376
 30
0.0
  0
VERTEX
  5
617
  8
DIMENSIONI
 10
-66.9677830904524
 20
43.73929958097163
 30
0.0
  0
VERTEX
  5
618
  8
DIMENSIONI
 10
-66.83268906390373
 20
43.90605843052915
 30
0.0
  0
VERTEX
  5
619
  8
DIMENSIONI
 10
-66.71686126154384
 20
44.06193969896573
 30
0.0
  0
VERTEX
  5
61A
  8
DIMENSIONI
 10
-66.61730373941995
 20
44.21076897625186
 30
0.0
  0
VERTEX
  5
61B
  8
DIMENSIONI
 10
-66.53102055357924
 20
44.35637185235806
 30
0.0
  0
VERTEX
  5
61C
  8
DIMENSIONI
 10
-66.45801170402171
 20
44.49874832728431
 30
0.0
  0
VERTEX
  5
61D
  8
DIMENSIONI
 10
-66.39827719074738
 20
44.63789840103063
 30
0.0
  0
VERTEX
  5
61E
  8
DIMENSIONI
 10
-66.35181701375623
 20
44.773822073597
 30
0.0
  0
VERTEX
  5
61F
  8
DIMENSIONI
 10
-66.31863117304826
 20
44.90651934498343
 30
0.0
  0
VERTEX
  5
620
  8
DIMENSIONI
 10
-66.29871966862348
 20
45.03599021518992
 30
0.0
  0
VERTEX
  5
621
  8
DIMENSIONI
 10
-66.2920825004819
 20
45.16223468421647
 30
0.0
  0
VERTEX
  5
622
  8
DIMENSIONI
 10
-66.2957237246707
 20
45.25524722108963
 30
0.0
  0
VERTEX
  5
623
  8
DIMENSIONI
 10
-66.30664739723707
 20
45.34401934498344
 30
0.0
  0
VERTEX
  5
624
  8
DIMENSIONI
 10
-66.32485351818103
 20
45.42855105589788
 30
0.0
  0
VERTEX
  5
625
  8
DIMENSIONI
 10
-66.35034208750255
 20
45.50884235383299
 30
0.0
  0
VERTEX
  5
626
  8
DIMENSIONI
 10
-66.38311310520167
 20
45.58489323878874
 30
0.0
  0
VERTEX
  5
627
  8
DIMENSIONI
 10
-66.42316657127836
 20
45.65670371076514
 30
0.0
  0
VERTEX
  5
628
  8
DIMENSIONI
 10
-66.47050248573264
 20
45.72427376976219
 30
0.0
  0
VERTEX
  5
629
  8
DIMENSIONI
 10
-66.5251208485645
 20
45.78760341577989
 30
0.0
  0
VERTEX
  5
62A
  8
DIMENSIONI
 10
-66.58480927039341
 20
45.84498726533741
 30
0.0
  0
VERTEX
  5
62B
  8
DIMENSIONI
 10
-66.64735536183883
 20
45.89471993495393
 30
0.0
  0
VERTEX
  5
62C
  8
DIMENSIONI
 10
-66.71275912290078
 20
45.93680142462944
 30
0.0
  0
VERTEX
  5
62D
  8
DIMENSIONI
 10
-66.78102055357925
 20
45.97123173436396
 30
0.0
  0
VERTEX
  5
62E
  8
DIMENSIONI
 10
-66.85213965387425
 20
45.99801086415747
 30
0.0
  0
VERTEX
  5
62F
  8
DIMENSIONI
 10
-66.92611642378574
 20
46.01713881400998
 30
0.0
  0
VERTEX
  5
630
  8
DIMENSIONI
 10
-67.00295086331376
 20
46.02861558392148
 30
0.0
  0
VERTEX
  5
631
  8
DIMENSIONI
 10
-67.0826429724583
 20
46.03244117389198
 30
0.0
  0
VERTEX
  5
632
  8
DIMENSIONI
 10
-67.22635609930197
 20
46.02165577566189
 30
0.0
  0
VERTEX
  5
633
  8
DIMENSIONI
 10
-67.36251022909548
 20
45.98929958097163
 30
0.0
  0
VERTEX
  5
634
  8
DIMENSIONI
 10
-67.49110536183883
 20
45.93537258982118
 30
0.0
  0
VERTEX
  5
635
  8
DIMENSIONI
 10
-67.61214149753205
 20
45.85987480221057
 30
0.0
  0
VERTEX
  5
636
  8
DIMENSIONI
 10
-67.7217469547592
 20
45.76354368126661
 30
0.0
  0
VERTEX
  5
637
  8
DIMENSIONI
 10
-67.81605005210432
 20
45.64711669011617
 30
0.0
  0
VERTEX
  5
638
  8
DIMENSIONI
 10
-67.89505078956745
 20
45.51059382875923
 30
0.0
  0
VERTEX
  5
639
  8
DIMENSIONI
 10
-67.95874916714857
 20
45.35397509719582
 30
0.0
  0
VERTEX
  5
63A
  8
DIMENSIONI
 10
-68.06789370992142
 20
45.35397509719582
 30
0.0
  0
VERTEX
  5
63B
  8
DIMENSIONI
 10
-68.04583895328425
 20
45.48644191135512
 30
0.0
  0
VERTEX
  5
63C
  8
DIMENSIONI
 10
-68.01654783971493
 20
45.61098099690084
 30
0.0
  0
VERTEX
  5
63D
  8
DIMENSIONI
 10
-67.98002036921346
 20
45.72759235383299
 30
0.0
  0
VERTEX
  5
63E
  8
DIMENSIONI
 10
-67.93625654177984
 20
45.83627598215157
 30
0.0
  0
VERTEX
  5
63F
  8
DIMENSIONI
 10
-67.88525635741405
 20
45.93703188185658
 30
0.0
  0
VERTEX
  5
640
  8
DIMENSIONI
 10
-67.82701981611612
 20
46.02986005294803
 30
0.0
  0
VERTEX
  5
641
  8
DIMENSIONI
 10
-67.76154691788602
 20
46.11476049542591
 30
0.0
  0
VERTEX
  5
642
  8
DIMENSIONI
 10
-67.68883766272378
 20
46.19173320929021
 30
0.0
  0
VERTEX
  5
643
  8
DIMENSIONI
 10
-67.61013651965595
 20
46.26017900575039
 30
0.0
  0
VERTEX
  5
644
  8
DIMENSIONI
 10
-67.52668795770904
 20
46.31949869601588
 30
0.0
  0
VERTEX
  5
645
  8
DIMENSIONI
 10
-67.43849197688309
 20
46.36969228008667
 30
0.0
  0
VERTEX
  5
646
  8
DIMENSIONI
 10
-67.34554857717806
 20
46.41075975796278
 30
0.0
  0
VERTEX
  5
647
  8
DIMENSIONI
 10
-67.247857758594
 20
46.44270112964419
 30
0.0
  0
VERTEX
  5
648
  8
DIMENSIONI
 10
-67.14541952113088
 20
46.46551639513092
 30
0.0
  0
VERTEX
  5
649
  8
DIMENSIONI
 10
-67.0382338647887
 20
46.47920555442295
 30
0.0
  0
VERTEX
  5
64A
  8
DIMENSIONI
 10
-66.92630078956745
 20
46.4837686075203
 30
0.0
  0
VERTEX
  5
64B
  8
DIMENSIONI
 10
-66.80713135741405
 20
46.47888291430497
 30
0.0
  0
VERTEX
  5
64C
  8
DIMENSIONI
 10
-66.69298589281227
 20
46.46422583465895
 30
0.0
  0
VERTEX
  5
64D
  8
DIMENSIONI
 10
-66.58386439576213
 20
46.43979736858225
 30
0.0
  0
VERTEX
  5
64E
  8
DIMENSIONI
 10
-66.4797668662636
 20
46.40559751607488
 30
0.0
  0
VERTEX
  5
64F
  8
DIMENSIONI
 10
-66.3806933043167
 20
46.36162627713683
 30
0.0
  0
VERTEX
  5
650
  8
DIMENSIONI
 10
-66.28664370992142
 20
46.30788365176809
 30
0.0
  0
VERTEX
  5
651
  8
DIMENSIONI
 10
-66.19761808307777
 20
46.24436963996869
 30
0.0
  0
VERTEX
  5
652
  8
DIMENSIONI
 10
-66.11361642378573
 20
46.17108424173859
 30
0.0
  0
VERTEX
  5
653
  8
DIMENSIONI
 10
-66.03721985298927
 20
46.09116167536691
 30
0.0
  0
VERTEX
  5
654
  8
DIMENSIONI
 10
-65.97100949163233
 20
46.00773615914272
 30
0.0
  0
VERTEX
  5
655
  8
DIMENSIONI
 10
-65.91498533971492
 20
45.92080769306602
 30
0.0
  0
VERTEX
  5
656
  8
DIMENSIONI
 10
-65.86914739723706
 20
45.83037627713682
 30
0.0
  0
VERTEX
  5
657
  8
DIMENSIONI
 10
-65.8334956641987
 20
45.7364419113551
 30
0.0
  0
VERTEX
  5
658
  8
DIMENSIONI
 10
-65.80803014059988
 20
45.63900459572089
 30
0.0
  0
VERTEX
  5
659
  8
DIMENSIONI
 10
-65.7927508264406
 20
45.53806433023416
 30
0.0
  0
VERTEX
  5
65A
  8
DIMENSIONI
 10
-65.78765772172083
 20
45.43362111489493
 30
0.0
  0
VERTEX
  5
65B
  8
DIMENSIONI
 10
-65.79650727924296
 20
45.28170371076514
 30
0.0
  0
VERTEX
  5
65C
  8
DIMENSIONI
 10
-65.82305595180932
 20
45.12978630663535
 30
0.0
  0
VERTEX
  5
65D
  8
DIMENSIONI
 10
-65.86730373941995
 20
44.97786890250556
 30
0.0
  0
VERTEX
  5
65E
  8
DIMENSIONI
 10
-65.92925064207482
 20
44.82595149837576
 30
0.0
  0
VERTEX
  5
65F
  8
DIMENSIONI
 10
-66.05535683676509
 20
44.58351049542591
 30
0.0
  0
VERTEX
  5
660
  8
DIMENSIONI
 10
-66.21538633529016
 20
44.33406359277105
 30
0.0
  0
VERTEX
  5
661
  8
DIMENSIONI
 10
-66.40933913765004
 20
44.07761079041116
 30
0.0
  0
VERTEX
  5
662
  8
DIMENSIONI
 10
-66.63721524384474
 20
43.81415208834626
 30
0.0
  0
VERTEX
  5
663
  8
DIMENSIONI
 10
-67.23382291346124
 20
43.17108424173859
 30
0.0
  0
VERTEX
  5
664
  8
DIMENSIONI
 10
-67.55461937363825
 20
42.84660046592738
 30
0.0
  0
VERTEX
  5
665
  8
DIMENSIONI
 10
-66.51037158602762
 20
42.84660046592738
 30
0.0
  0
VERTEX
  5
666
  8
DIMENSIONI
 10
-66.23935388691257
 20
42.85250017094213
 30
0.0
  0
VERTEX
  5
667
  8
DIMENSIONI
 10
-66.06346893116036
 20
42.87019928598638
 30
0.0
  0
VERTEX
  5
668
  8
DIMENSIONI
 10
-65.94141878366773
 20
42.9059662476383
 30
0.0
  0
VERTEX
  5
669
  8
DIMENSIONI
 10
-65.83190550933146
 20
42.96606949247606
 30
0.0
  0
VERTEX
  5
66A
  8
DIMENSIONI
 10
-65.7819423824878
 20
43.00598468421646
 30
0.0
  0
VERTEX
  5
66B
  8
DIMENSIONI
 10
-65.73529783971495
 20
43.05345887300702
 30
0.0
  0
VERTEX
  5
66C
  8
DIMENSIONI
 10
-65.6519645063816
 20
43.17108424173859
 30
0.0
  0
SEQEND
  5
A87
  8
DIMENSIONI
  0
POLYLINE
  5
C1
  8
DIMENSIONI
 66
     1
 10
0.0
 20
0.0
 30
0.0
 70
     1
  0
VERTEX
  5
66D
  8
DIMENSIONI
 10
-62.66966362142586
 20
46.40117273731381
 30
0.0
  0
VERTEX
  5
66E
  8
DIMENSIONI
 10
-62.89975211700108
 20
45.89969781106013
 30
0.0
  0
VERTEX
  5
66F
  8
DIMENSIONI
 10
-64.10329194000992
 20
45.89969781106013
 30
0.0
  0
VERTEX
  5
670
  8
DIMENSIONI
 10
-64.36582881316627
 20
45.36282465471795
 30
0.0
  0
VERTEX
  5
671
  8
DIMENSIONI
 10
-64.17547114354976
 20
45.32857871076514
 30
0.0
  0
VERTEX
  5
672
  8
DIMENSIONI
 10
-63.99525359192733
 20
45.28336300280054
 30
0.0
  0
VERTEX
  5
673
  8
DIMENSIONI
 10
-63.82517615829902
 20
45.22717753082414
 30
0.0
  0
VERTEX
  5
674
  8
DIMENSIONI
 10
-63.66523884266479
 20
45.16002229483594
 30
0.0
  0
VERTEX
  5
675
  8
DIMENSIONI
 10
-63.51544164502468
 20
45.08189729483594
 30
0.0
  0
VERTEX
  5
676
  8
DIMENSIONI
 10
-63.37578456537866
 20
44.99280253082414
 30
0.0
  0
VERTEX
  5
677
  8
DIMENSIONI
 10
-63.24626760372674
 20
44.89273800280054
 30
0.0
  0
VERTEX
  5
678
  8
DIMENSIONI
 10
-63.12689076006892
 20
44.78170371076514
 30
0.0
  0
VERTEX
  5
679
  8
DIMENSIONI
 10
-63.03493832644061
 20
44.67919633613388
 30
0.0
  0
VERTEX
  5
67A
  8
DIMENSIONI
 10
-62.95524621729606
 20
44.57226418274155
 30
0.0
  0
VERTEX
  5
67B
  8
DIMENSIONI
 10
-62.8878144326353
 20
44.46090725058816
 30
0.0
  0
VERTEX
  5
67C
  8
DIMENSIONI
 10
-62.8326429724583
 20
44.3451255396737
 30
0.0
  0
VERTEX
  5
67D
  8
DIMENSIONI
 10
-62.78973183676509
 20
44.22491904999819
 30
0.0
  0
VERTEX
  5
67E
  8
DIMENSIONI
 10
-62.75908102555564
 20
44.1002877815616
 30
0.0
  0
VERTEX
  5
67F
  8
DIMENSIONI
 10
-62.74069053882998
 20
43.97123173436397
 30
0.0
  0
VERTEX
  5
680
  8
DIMENSIONI
 10
-62.7345603765881
 20
43.83775090840526
 30
0.0
  0
VERTEX
  5
681
  8
DIMENSIONI
 10
-62.74258028809253
 20
43.68288365176809
 30
0.0
  0
VERTEX
  5
682
  8
DIMENSIONI
 10
-62.7666400226058
 20
43.53391610014567
 30
0.0
  0
VERTEX
  5
683
  8
DIMENSIONI
 10
-62.80673958012792
 20
43.390848253538
 30
0.0
  0
VERTEX
  5
684
  8
DIMENSIONI
 10
-62.8628789606589
 20
43.25368011194508
 30
0.0
  0
VERTEX
  5
685
  8
DIMENSIONI
 10
-62.93118648278279
 20
43.12443969896573
 30
0.0
  0
VERTEX
  5
686
  8
DIMENSIONI
 10
-63.00779046508368
 20
43.00515503819877
 30
0.0
  0
VERTEX
  5
687
  8
DIMENSIONI
 10
-63.09269090756155
 20
42.89582612964419
 30
0.0
  0
VERTEX
  5
688
  8
DIMENSIONI
 10
-63.18588781021642
 20
42.79645297330202
 30
0.0
  0
VERTEX
  5
689
  8
DIMENSIONI
 10
-63.28599842968546
 20
42.70666683760879
 30
0.0
  0
VERTEX
  5
68A
  8
DIMENSIONI
 10
-63.39164002260581
 20
42.62609899100113
 30
0.0
  0
VERTEX
  5
68B
  8
DIMENSIONI
 10
-63.50281258897748
 20
42.55474943347901
 30
0.0
  0
VERTEX
  5
68C
  8
DIMENSIONI
 10
-63.61951612880049
 20
42.49261816504243
 30
0.0
  0
VERTEX
  5
68D
  8
DIMENSIONI
 10
-63.7902388426648
 20
42.42163733908373
 30
0.0
  0
VERTEX
  5
68E
  8
DIMENSIONI
 10
-63.96317394590964
 20
42.37093674911323
 30
0.0
  0
VERTEX
  5
68F
  8
DIMENSIONI
 10
-64.138321438535
 20
42.34051639513092
 30
0.0
  0
VERTEX
  5
690
  8
DIMENSIONI
 10
-64.3156813205409
 20
42.33037627713682
 30
0.0
  0
VERTEX
  5
691
  8
DIMENSIONI
 10
-64.48336199900699
 20
42.33802745707783
 30
0.0
  0
VERTEX
  5
692
  8
DIMENSIONI
 10
-64.6265220285055
 20
42.36098099690084
 30
0.0
  0
VERTEX
  5
693
  8
DIMENSIONI
 10
-64.74516140903647
 20
42.39923689660585
 30
0.0
  0
VERTEX
  5
694
  8
DIMENSIONI
 10
-64.8392801405999
 20
42.45279515619287
 30
0.0
  0
VERTEX
  5
695
  8
DIMENSIONI
 10
-64.9109062467946
 20
42.51557170486544
 30
0.0
  0
VERTEX
  5
696
  8
DIMENSIONI
 10
-64.96206775121938
 20
42.58148247182709
 30
0.0
  0
VERTEX
  5
697
  8
DIMENSIONI
 10
-64.99276465387425
 20
42.65052745707781
 30
0.0
  0
VERTEX
  5
698
  8
DIMENSIONI
 10
-65.0029969547592
 20
42.72270666061765
 30
0.0
  0
VERTEX
  5
699
  8
DIMENSIONI
 10
-64.99875654177984
 20
42.76280621813977
 30
0.0
  0
VERTEX
  5
69A
  8
DIMENSIONI
 10
-64.9860353028418
 20
42.80050902049965
 30
0.0
  0
VERTEX
  5
69B
  8
DIMENSIONI
 10
-64.96483323794503
 20
42.8358150676973
 30
0.0
  0
VERTEX
  5
69C
  8
DIMENSIONI
 10
-64.93515034708958
 20
42.8687243597327
 30
0.0
  0
VERTEX
  5
69D
  8
DIMENSIONI
 10
-64.89901465387422
 20
42.89647140988019
 30
0.0
  0
VERTEX
  5
69E
  8
DIMENSIONI
 10
-64.85845418189783
 20
42.91629073141411
 30
0.0
  0
VERTEX
  5
69F
  8
DIMENSIONI
 10
-64.81346893116037
 20
42.92818232433446
 30
0.0
  0
VERTEX
  5
6A0
  8
DIMENSIONI
 10
-64.76405890166184
 20
42.93214618864125
 30
0.0
  0
VERTEX
  5
6A1
  8
DIMENSIONI
 10
-64.6921562467946
 20
42.9262464836265
 30
0.0
  0
VERTEX
  5
6A2
  8
DIMENSIONI
 10
-64.6298406125763
 20
42.90854736858225
 30
0.0
  0
VERTEX
  5
6A3
  8
DIMENSIONI
 10
-64.55203825269429
 20
42.86651197035216
 30
0.0
  0
VERTEX
  5
6A4
  8
DIMENSIONI
 10
-64.43367542083588
 20
42.78760341577989
 30
0.0
  0
VERTEX
  5
6A5
  8
DIMENSIONI
 10
-64.32268722024591
 20
42.72049427123711
 30
0.0
  0
VERTEX
  5
6A6
  8
DIMENSIONI
 10
-64.2109615565291
 20
42.67255916799228
 30
0.0
  0
VERTEX
  5
6A7
  8
DIMENSIONI
 10
-64.09849842968545
 20
42.64379810604538
 30
0.0
  0
VERTEX
  5
6A8
  8
DIMENSIONI
 10
-63.98529783971495
 20
42.63421108539641
 30
0.0
  0
VERTEX
  5
6A9
  8
DIMENSIONI
 10
-63.90032826006893
 20
42.63829017831677
 30
0.0
  0
VERTEX
  5
6AA
  8
DIMENSIONI
 10
-63.81798589281229
 20
42.65052745707782
 30
0.0
  0
VERTEX
  5
6AB
  8
DIMENSIONI
 10
-63.73827073794503
 20
42.67092292167959
 30
0.0
  0
VERTEX
  5
6AC
  8
DIMENSIONI
 10
-63.66118279546716
 20
42.69947657212207
 30
0.0
  0
VERTEX
  5
6AD
  8
DIMENSIONI
 10
-63.58672206537867
 20
42.73618840840525
 30
0.0
  0
VERTEX
  5
6AE
  8
DIMENSIONI
 10
-63.51488854767955
 20
42.78105843052915
 30
0.0
  0
VERTEX
  5
6AF
  8
DIMENSIONI
 10
-63.44568224236981
 20
42.83408663849376
 30
0.0
  0
VERTEX
  5
6B0
  8
DIMENSIONI
 10
-63.37910314944946
 20
42.89527303229907
 30
0.0
  0
VERTEX
  5
6B1
  8
DIMENSIONI
 10
-63.31791675564416
 20
42.9623130396737
 30
0.0
  0
VERTEX
  5
6B2
  8
DIMENSIONI
 10
-63.26488854767955
 20
43.03290208834626
 30
0.0
  0
VERTEX
  5
6B3
  8
DIMENSIONI
 10
-63.22001852555566
 20
43.10704017831677
 30
0.0
  0
VERTEX
  5
6B4
  8
DIMENSIONI
 10
-63.18330668927247
 20
43.18472730958521
 30
0.0
  0
VERTEX
  5
6B5
  8
DIMENSIONI
 10
-63.15475303882999
 20
43.26596348215158
 30
0.0
  0
VERTEX
  5
6B6
  8
DIMENSIONI
 10
-63.13435757422823
 20
43.35074869601588
 30
0.0
  0
VERTEX
  5
6B7
  8
DIMENSIONI
 10
-63.12212029546716
 20
43.43908295117812
 30
0.0
  0
VERTEX
  5
6B8
  8
DIMENSIONI
 10
-63.11804120254681
 20
43.5309662476383
 30
0.0
  0
VERTEX
  5
6B9
  8
DIMENSIONI
 10
-63.13260609930197
 20
43.7093401414436
 30
0.0
  0
VERTEX
  5
6BA
  8
DIMENSIONI
 10
-63.17630078956745
 20
43.88162996445246
 30
0.0
  0
VERTEX
  5
6BB
  8
DIMENSIONI
 10
-63.24912527334327
 20
44.04783571666484
 30
0.0
  0
VERTEX
  5
6BC
  8
DIMENSIONI
 10
-63.3510795506294
 20
44.20795739808078
 30
0.0
  0
VERTEX
  5
6BD
  8
DIMENSIONI
 10
-63.47866067157336
 20
44.35609530368549
 30
0.0
  0
VERTEX
  5
6BE
  8
DIMENSIONI
 10
-63.62836568632262
 20
44.48634972846426
 30
0.0
  0
VERTEX
  5
6BF
  8
DIMENSIONI
 10
-63.80019459487719
 20
44.59872067241706
 30
0.0
  0
VERTEX
  5
6C0
  8
DIMENSIONI
 10
-63.99414739723707
 20
44.69320813554391
 30
0.0
  0
VERTEX
  5
6C1
  8
DIMENSIONI
 10
-64.16947925564415
 20
44.75257391725482
 30
0.0
  0
VERTEX
  5
6C2
  8
DIMENSIONI
 10
-64.37394090756155
 20
44.7979278995557
 30
0.0
  0
VERTEX
  5
6C3
  8
DIMENSIONI
 10
-64.60753235298928
 20
44.82927008244656
 30
0.0
  0
VERTEX
  5
6C4
  8
DIMENSIONI
 10
-64.87025359192734
 20
44.84660046592738
 30
0.0
  0
VERTEX
  5
6C5
  8
DIMENSIONI
 10
-64.10329194000992
 20
46.40117273731381
 30
0.0
  0
SEQEND
  5
A88
  8
DIMENSIONI
  0
POLYLINE
  5
C2
  8
DIMENSIONI
 66
     1
 10
0.0
 20
0.0
 30
0.0
 70
     1
  0
VERTEX
  5
6C6
  8
DIMENSIONI
 10
-61.51627129104238
 20
42.97344412374449
 30
0.0
  0
VERTEX
  5
6C7
  8
DIMENSIONI
 10
-61.44971524384474
 20
42.96745223583889
 30
0.0
  0
VERTEX
  5
6C8
  8
DIMENSIONI
 10
-61.38869017009843
 20
42.94947657212207
 30
0.0
  0
VERTEX
  5
6C9
  8
DIMENSIONI
 10
-61.33319606980345
 20
42.91951713259404
 30
0.0
  0
VERTEX
  5
6CA
  8
DIMENSIONI
 10
-61.28323294295978
 20
42.87757391725481
 30
0.0
  0
VERTEX
  5
6CB
  8
DIMENSIONI
 10
-61.24193500785654
 20
42.82714987595688
 30
0.0
  0
VERTEX
  5
6CC
  8
DIMENSIONI
 10
-61.21243648278279
 20
42.77174795855275
 30
0.0
  0
VERTEX
  5
6CD
  8
DIMENSIONI
 10
-61.19473736773854
 20
42.71136816504243
 30
0.0
  0
VERTEX
  5
6CE
  8
DIMENSIONI
 10
-61.18883766272379
 20
42.64601049542591
 30
0.0
  0
VERTEX
  5
6CF
  8
DIMENSIONI
 10
-61.19482955062939
 20
42.58065282580939
 30
0.0
  0
VERTEX
  5
6D0
  8
DIMENSIONI
 10
-61.21280521434621
 20
42.52027303229907
 30
0.0
  0
VERTEX
  5
6D1
  8
DIMENSIONI
 10
-61.24276465387424
 20
42.46487111489493
 30
0.0
  0
VERTEX
  5
6D2
  8
DIMENSIONI
 10
-61.28470786921347
 20
42.414447073597
 30
0.0
  0
VERTEX
  5
6D3
  8
DIMENSIONI
 10
-61.33513191051141
 20
42.37250385825777
 30
0.0
  0
VERTEX
  5
6D4
  8
DIMENSIONI
 10
-61.39053382791553
 20
42.34254441872974
 30
0.0
  0
VERTEX
  5
6D5
  8
DIMENSIONI
 10
-61.45091362142585
 20
42.32456875501293
 30
0.0
  0
VERTEX
  5
6D6
  8
DIMENSIONI
 10
-61.51627129104238
 20
42.31857686710732
 30
0.0
  0
VERTEX
  5
6D7
  8
DIMENSIONI
 10
-61.5816289606589
 20
42.32456875501293
 30
0.0
  0
VERTEX
  5
6D8
  8
DIMENSIONI
 10
-61.64200875416923
 20
42.34254441872974
 30
0.0
  0
VERTEX
  5
6D9
  8
DIMENSIONI
 10
-61.69741067157335
 20
42.37250385825777
 30
0.0
  0
VERTEX
  5
6DA
  8
DIMENSIONI
 10
-61.74783471287129
 20
42.414447073597
 30
0.0
  0
VERTEX
  5
6DB
  8
DIMENSIONI
 10
-61.78977792821052
 20
42.46487111489493
 30
0.0
  0
VERTEX
  5
6DC
  8
DIMENSIONI
 10
-61.81973736773855
 20
42.52027303229907
 30
0.0
  0
VERTEX
  5
6DD
  8
DIMENSIONI
 10
-61.83771303145537
 20
42.58065282580939
 30
0.0
  0
VERTEX
  5
6DE
  8
DIMENSIONI
 10
-61.84370491936097
 20
42.64601049542591
 30
0.0
  0
VERTEX
  5
6DF
  8
DIMENSIONI
 10
-61.83771303145537
 20
42.71256654262355
 30
0.0
  0
VERTEX
  5
6E0
  8
DIMENSIONI
 10
-61.81973736773855
 20
42.77359161636986
 30
0.0
  0
VERTEX
  5
6E1
  8
DIMENSIONI
 10
-61.78977792821052
 20
42.82908571666484
 30
0.0
  0
VERTEX
  5
6E2
  8
DIMENSIONI
 10
-61.74783471287129
 20
42.87904884350851
 30
0.0
  0
VERTEX
  5
6E3
  8
DIMENSIONI
 10
-61.69741067157335
 20
42.92034677861176
 30
0.0
  0
VERTEX
  5
6E4
  8
DIMENSIONI
 10
-61.64200875416923
 20
42.9498453036855
 30
0.0
  0
VERTEX
  5
6E5
  8
DIMENSIONI
 10
-61.5816289606589
 20
42.96754441872974
 30
0.0
  0
SEQEND
  5
A89
  8
DIMENSIONI
  0
POLYLINE
  5
C3
  8
DIMENSIONI
 66
     1
 10
0.0
 20
0.0
 30
0.0
 70
     1
  0
VERTEX
  5
6E6
  8
DIMENSIONI
 10
-60.54281996360875
 20
44.37757391725481
 30
0.0
  0
VERTEX
  5
6E7
  8
DIMENSIONI
 10
-60.52991435888899
 20
44.70786521518993
 30
0.0
  0
VERTEX
  5
6E8
  8
DIMENSIONI
 10
-60.4911975447297
 20
45.01437332728432
 30
0.0
  0
VERTEX
  5
6E9
  8
DIMENSIONI
 10
-60.46215993411023
 20
45.15870868864124
 30
0.0
  0
VERTEX
  5
6EA
  8
DIMENSIONI
 10
-60.42666952113088
 20
45.297098253538
 30
0.0
  0
VERTEX
  5
6EB
  8
DIMENSIONI
 10
-60.38472630579165
 20
45.42954202197458
 30
0.0
  0
VERTEX
  5
6EC
  8
DIMENSIONI
 10
-60.33633028809253
 20
45.55603999395098
 30
0.0
  0
VERTEX
  5
6ED
  8
DIMENSIONI
 10
-60.22460462437571
 20
45.78732686710732
 30
0.0
  0
VERTEX
  5
6EE
  8
DIMENSIONI
 10
-60.16238117304827
 20
45.89114784793328
 30
0.0
  0
VERTEX
  5
6EF
  8
DIMENSIONI
 10
-60.09591730874149
 20
45.9870871915911
 30
0.0
  0
VERTEX
  5
6F0
  8
DIMENSIONI
 10
-60.02521303145535
 20
46.07514489808078
 30
0.0
  0
VERTEX
  5
6F1
  8
DIMENSIONI
 10
-59.95026834118987
 20
46.15532096740232
 30
0.0
  0
VERTEX
  5
6F2
  8
DIMENSIONI
 10
-59.87108323794503
 20
46.22761539955571
 30
0.0
  0
VERTEX
  5
6F3
  8
DIMENSIONI
 10
-59.78765772172084
 20
46.29202819454095
 30
0.0
  0
VERTEX
  5
6F4
  8
DIMENSIONI
 10
-59.65380816419871
 20
46.37591462521942
 30
0.0
  0
VERTEX
  5
6F5
  8
DIMENSIONI
 10
-59.51774621729606
 20
46.43583350427547
 30
0.0
  0
VERTEX
  5
6F6
  8
DIMENSIONI
 10
-59.37947188101288
 20
46.47178483170909
 30
0.0
  0
VERTEX
  5
6F7
  8
DIMENSIONI
 10
-59.23898515534916
 20
46.4837686075203
 30
0.0
  0
VERTEX
  5
6F8
  8
DIMENSIONI
 10
-59.12541583381524
 20
46.4764400676973
 30
0.0
  0
VERTEX
  5
6F9
  8
DIMENSIONI
 10
-59.01479636478869
 20
46.45445444822827
 30
0.0
  0
VERTEX
  5
6FA
  8
DIMENSIONI
 10
-58.90712674826952
 20
46.41781174911323
 30
0.0
  0
VERTEX
  5
6FB
  8
DIMENSIONI
 10
-58.80240698425772
 20
46.36651197035216
 30
0.0
  0
VERTEX
  5
6FC
  8
DIMENSIONI
 10
-58.7006370727533
 20
46.30055511194509
 30
0.0
  0
VERTEX
  5
6FD
  8
DIMENSIONI
 10
-58.60181701375624
 20
46.21994117389199
 30
0.0
  0
VERTEX
  5
6FE
  8
DIMENSIONI
 10
-58.50594680726656
 20
46.12467015619288
 30
0.0
  0
VERTEX
  5
6FF
  8
DIMENSIONI
 10
-58.41302645328427
 20
46.01474205884774
 30
0.0
  0
VERTEX
  5
700
  8
DIMENSIONI
 10
-58.30586384266481
 20
45.86300902049966
 30
0.0
  0
VERTEX
  5
701
  8
DIMENSIONI
 10
-58.21298958012793
 20
45.69837037743181
 30
0.0
  0
VERTEX
  5
702
  8
DIMENSIONI
 10
-58.13440366567365
 20
45.52082612964421
 30
0.0
  0
VERTEX
  5
703
  8
DIMENSIONI
 10
-58.07010609930197
 20
45.33037627713683
 30
0.0
  0
VERTEX
  5
704
  8
DIMENSIONI
 10
-58.02009688101288
 20
45.12702081990969
 30
0.0
  0
VERTEX
  5
705
  8
DIMENSIONI
 10
-57.98437601080639
 20
44.91075975796279
 30
0.0
  0
VERTEX
  5
706
  8
DIMENSIONI
 10
-57.9629434886825
 20
44.68159309129612
 30
0.0
  0
VERTEX
  5
707
  8
DIMENSIONI
 10
-57.9557993146412
 20
44.43952081990968
 30
0.0
  0
VERTEX
  5
708
  8
DIMENSIONI
 10
-57.96833618779753
 20
44.10452819454095
 30
0.0
  0
VERTEX
  5
709
  8
DIMENSIONI
 10
-58.00594680726657
 20
43.79571551017517
 30
0.0
  0
VERTEX
  5
70A
  8
DIMENSIONI
 10
-58.03415477186834
 20
43.65112664586839
 30
0.0
  0
VERTEX
  5
70B
  8
DIMENSIONI
 10
-58.06863117304827
 20
43.51308276681234
 30
0.0
  0
VERTEX
  5
70C
  8
DIMENSIONI
 10
-58.10937601080639
 20
43.38158387300703
 30
0.0
  0
VERTEX
  5
70D
  8
DIMENSIONI
 10
-58.15638928514267
 20
43.25662996445246
 30
0.0
  0
VERTEX
  5
70E
  8
DIMENSIONI
 10
-58.26359798720757
 20
43.02995223583889
 30
0.0
  0
VERTEX
  5
70F
  8
DIMENSIONI
 10
-58.38463412290078
 20
42.836644713715
 30
0.0
  0
VERTEX
  5
710
  8
DIMENSIONI
 10
-58.45033747835801
 20
42.75250478008668
 30
0.0
  0
VERTEX
  5
711
  8
DIMENSIONI
 10
-58.51949769222232
 20
42.67670739808078
 30
0.0
  0
VERTEX
  5
712
  8
DIMENSIONI
 10
-58.5921147644937
 20
42.60925256769729
 30
0.0
  0
VERTEX
  5
713
  8
DIMENSIONI
 10
-58.66818869517217
 20
42.55014028893623
 30
0.0
  0
VERTEX
  5
714
  8
DIMENSIONI
 10
-58.82241067157335
 20
42.45399353377399
 30
0.0
  0
VERTEX
  5
715
  8
DIMENSIONI
 10
-58.97386716124887
 20
42.38531728008667
 30
0.0
  0
VERTEX
  5
716
  8
DIMENSIONI
 10
-59.12255816419872
 20
42.34411152787428
 30
0.0
  0
VERTEX
  5
717
  8
DIMENSIONI
 10
-59.26848368042291
 20
42.33037627713682
 30
0.0
  0
VERTEX
  5
718
  8
DIMENSIONI
 10
-59.40855558307778
 20
42.34093121813977
 30
0.0
  0
VERTEX
  5
719
  8
DIMENSIONI
 10
-59.54263559782704
 20
42.37259604114862
 30
0.0
  0
VERTEX
  5
71A
  8
DIMENSIONI
 10
-59.67072372467069
 20
42.42537074616337
 30
0.0
  0
VERTEX
  5
71B
  8
DIMENSIONI
 10
-59.79281996360875
 20
42.49925533318402
 30
0.0
  0
VERTEX
  5
71C
  8
DIMENSIONI
 10
-59.9089243146412
 20
42.59424980221057
 30
0.0
  0
VERTEX
  5
71D
  8
DIMENSIONI
 10
-60.01903677776804
 20
42.71035415324302
 30
0.0
  0
VERTEX
  5
71E
  8
DIMENSIONI
 10
-60.12315735298928
 20
42.84756838628137
 30
0.0
  0
VERTEX
  5
71F
  8
DIMENSIONI
 10
-60.22128604030492
 20
43.00589250132561
 30
0.0
  0
VERTEX
  5
720
  8
DIMENSIONI
 10
-60.29664555357925
 20
43.15186410899523
 30
0.0
  0
VERTEX
  5
721
  8
DIMENSIONI
 10
-60.36195713175034
 20
43.30511816504243
 30
0.0
  0
VERTEX
  5
722
  8
DIMENSIONI
 10
-60.41722077481819
 20
43.46565466946721
 30
0.0
  0
VERTEX
  5
723
  8
DIMENSIONI
 10
-60.46243648278279
 20
43.63347362226956
 30
0.0
  0
VERTEX
  5
724
  8
DIMENSIONI
 10
-60.49760425564415
 20
43.80857502344951
 30
0.0
  0
VERTEX
  5
725
  8
DIMENSIONI
 10
-60.52272409340226
 20
43.99095887300703
 30
0.0
  0
VERTEX
  5
726
  8
DIMENSIONI
 10
-60.53779599605713
 20
44.18062517094214
 30
0.0
  0
SEQEND
  5
A8A
  8
DIMENSIONI
  0
POLYLINE
  5
C4
  8
DIMENSIONI
 66
     1
 10
0.0
 20
0.0
 30
0.0
 70
     1
  0
VERTEX
  5
727
  8
DIMENSIONI
 10
-59.96464887216332
 20
44.30382760457045
 30
0.0
  0
VERTEX
  5
728
  8
DIMENSIONI
 10
-59.95192763322527
 20
43.90983792905423
 30
0.0
  0
VERTEX
  5
729
  8
DIMENSIONI
 10
-59.91376391641111
 20
43.55382760457046
 30
0.0
  0
VERTEX
  5
72A
  8
DIMENSIONI
 10
-59.8851411288005
 20
43.39006469896573
 30
0.0
  0
VERTEX
  5
72B
  8
DIMENSIONI
 10
-59.85015772172085
 20
43.23579663111913
 30
0.0
  0
VERTEX
  5
72C
  8
DIMENSIONI
 10
-59.80881369517217
 20
43.09102340103063
 30
0.0
  0
VERTEX
  5
72D
  8
DIMENSIONI
 10
-59.76110904915447
 20
42.95574500870025
 30
0.0
  0
VERTEX
  5
72E
  8
DIMENSIONI
 10
-59.71649252998044
 20
42.85273062816928
 30
0.0
  0
VERTEX
  5
72F
  8
DIMENSIONI
 10
-59.66671376891848
 20
42.76345149837577
 30
0.0
  0
VERTEX
  5
730
  8
DIMENSIONI
 10
-59.61177276596864
 20
42.68790761931972
 30
0.0
  0
VERTEX
  5
731
  8
DIMENSIONI
 10
-59.55166952113088
 20
42.62609899100113
 30
0.0
  0
VERTEX
  5
732
  8
DIMENSIONI
 10
-59.48640403440521
 20
42.57802561342001
 30
0.0
  0
VERTEX
  5
733
  8
DIMENSIONI
 10
-59.41597630579163
 20
42.54368748657635
 30
0.0
  0
VERTEX
  5
734
  8
DIMENSIONI
 10
-59.34038633529016
 20
42.52308461047016
 30
0.0
  0
VERTEX
  5
735
  8
DIMENSIONI
 10
-59.25963412290078
 20
42.51621698510142
 30
0.0
  0
VERTEX
  5
736
  8
DIMENSIONI
 10
-59.17925064207482
 20
42.5251587255144
 30
0.0
  0
VERTEX
  5
737
  8
DIMENSIONI
 10
-59.09739223499518
 20
42.55198394675334
 30
0.0
  0
VERTEX
  5
738
  8
DIMENSIONI
 10
-59.01405890166184
 20
42.59669264881823
 30
0.0
  0
VERTEX
  5
739
  8
DIMENSIONI
 10
-58.92925064207483
 20
42.65928483170909
 30
0.0
  0
VERTEX
  5
73A
  8
DIMENSIONI
 10
-58.84886716124887
 20
42.742894713715
 30
0.0
  0
VERTEX
  5
73B
  8
DIMENSIONI
 10
-58.77880816419872
 20
42.85065651312502
 30
0.0
  0
VERTEX
  5
73C
  8
DIMENSIONI
 10
-58.71907365092439
 20
42.98257022993918
 30
0.0
  0
VERTEX
  5
73D
  8
DIMENSIONI
 10
-58.66966362142586
 20
43.13863586415747
 30
0.0
  0
VERTEX
  5
73E
  8
DIMENSIONI
 10
-58.61029783971495
 20
43.41831875501293
 30
0.0
  0
VERTEX
  5
73F
  8
DIMENSIONI
 10
-58.56789370992144
 20
43.74999279631086
 30
0.0
  0
VERTEX
  5
740
  8
DIMENSIONI
 10
-58.54245123204532
 20
44.13365798805128
 30
0.0
  0
VERTEX
  5
741
  8
DIMENSIONI
 10
-58.53397040608662
 20
44.56931433023417
 30
0.0
  0
VERTEX
  5
742
  8
DIMENSIONI
 10
-58.54281996360874
 20
44.89730105589788
 30
0.0
  0
VERTEX
  5
743
  8
DIMENSIONI
 10
-58.56936863617511
 20
45.19689545117812
 30
0.0
  0
VERTEX
  5
744
  8
DIMENSIONI
 10
-58.61361642378573
 20
45.46809751607488
 30
0.0
  0
VERTEX
  5
745
  8
DIMENSIONI
 10
-58.67556332644061
 20
45.71090725058815
 30
0.0
  0
VERTEX
  5
746
  8
DIMENSIONI
 10
-58.73253235298928
 20
45.86817126238756
 30
0.0
  0
VERTEX
  5
747
  8
DIMENSIONI
 10
-58.79724474236981
 20
46.0007302594377
 30
0.0
  0
VERTEX
  5
748
  8
DIMENSIONI
 10
-58.8697004945822
 20
46.10858424173858
 30
0.0
  0
VERTEX
  5
749
  8
DIMENSIONI
 10
-58.94989960962645
 20
46.19173320929021
 30
0.0
  0
VERTEX
  5
74A
  8
DIMENSIONI
 10
-59.01350580431671
 20
46.23432170486544
 30
0.0
  0
VERTEX
  5
74B
  8
DIMENSIONI
 10
-59.08338043558516
 20
46.26474205884774
 30
0.0
  0
VERTEX
  5
74C
  8
DIMENSIONI
 10
-59.15952350343176
 20
46.28299427123711
 30
0.0
  0
VERTEX
  5
74D
  8
DIMENSIONI
 10
-59.24193500785654
 20
46.28907834203358
 30
0.0
  0
VERTEX
  5
74E
  8
DIMENSIONI
 10
-59.33946450638161
 20
46.27783202934921
 30
0.0
  0
VERTEX
  5
74F
  8
DIMENSIONI
 10
-59.43146303145536
 20
46.24409309129612
 30
0.0
  0
VERTEX
  5
750
  8
DIMENSIONI
 10
-59.51793058307778
 20
46.18786152787429
 30
0.0
  0
VERTEX
  5
751
  8
DIMENSIONI
 10
-59.59886716124887
 20
46.10913733908372
 30
0.0
  0
VERTEX
  5
752
  8
DIMENSIONI
 10
-59.64984429989193
 20
46.04354921224007
 30
0.0
  0
VERTEX
  5
753
  8
DIMENSIONI
 10
-59.69658102555565
 20
45.96920371076514
 30
0.0
  0
VERTEX
  5
754
  8
DIMENSIONI
 10
-59.73907733824002
 20
45.88610083465895
 30
0.0
  0
VERTEX
  5
755
  8
DIMENSIONI
 10
-59.77733323794503
 20
45.79424058392149
 30
0.0
  0
VERTEX
  5
756
  8
DIMENSIONI
 10
-59.84112379841701
 20
45.58424795855275
 30
0.0
  0
VERTEX
  5
757
  8
DIMENSIONI
 10
-59.88795270697158
 20
45.33922583465895
 30
0.0
  0
VERTEX
  5
758
  8
DIMENSIONI
 10
-59.92150727924297
 20
45.07761079041116
 30
0.0
  0
VERTEX
  5
759
  8
DIMENSIONI
 10
-59.94547483086539
 20
44.81783940398049
 30
0.0
  0
VERTEX
  5
75A
  8
DIMENSIONI
 10
-59.95985536183884
 20
44.55991167536691
 30
0.0
  0
SEQEND
  5
A8B
  8
DIMENSIONI
  0
POLYLINE
  5
C5
  8
DIMENSIONI
 66
     1
 10
0.0
 20
0.0
 30
0.0
 70
     1
  0
VERTEX
  5
75B
  8
DIMENSIONI
 10
-56.12689076006892
 20
42.40117273731381
 30
0.0
  0
VERTEX
  5
75C
  8
DIMENSIONI
 10
-56.12689076006892
 20
42.51031728008667
 30
0.0
  0
VERTEX
  5
75D
  8
DIMENSIONI
 10
-55.97644828219282
 20
42.51031728008667
 30
0.0
  0
VERTEX
  5
75E
  8
DIMENSIONI
 10
-55.85882291346125
 20
42.52045739808077
 30
0.0
  0
VERTEX
  5
75F
  8
DIMENSIONI
 10
-55.75963412290079
 20
42.55087775206307
 30
0.0
  0
VERTEX
  5
760
  8
DIMENSIONI
 10
-55.67888191051141
 20
42.60157834203358
 30
0.0
  0
VERTEX
  5
761
  8
DIMENSIONI
 10
-55.61656627629311
 20
42.67255916799228
 30
0.0
  0
VERTEX
  5
762
  8
DIMENSIONI
 10
-55.58817394590964
 20
42.73634972846425
 30
0.0
  0
VERTEX
  5
763
  8
DIMENSIONI
 10
-55.56789370992144
 20
42.83037627713682
 30
0.0
  0
VERTEX
  5
764
  8
DIMENSIONI
 10
-55.55572556832851
 20
42.95463881400998
 30
0.0
  0
VERTEX
  5
765
  8
DIMENSIONI
 10
-55.55166952113087
 20
43.10913733908372
 30
0.0
  0
VERTEX
  5
766
  8
DIMENSIONI
 10
-55.55166952113087
 20
45.69320813554391
 30
0.0
  0
VERTEX
  5
767
  8
DIMENSIONI
 10
-55.55683176301878
 20
45.86300902049966
 30
0.0
  0
VERTEX
  5
768
  8
DIMENSIONI
 10
-55.57231848868249
 20
45.99778040693033
 30
0.0
  0
VERTEX
  5
769
  8
DIMENSIONI
 10
-55.59812969812202
 20
46.09752229483594
 30
0.0
  0
VERTEX
  5
76A
  8
DIMENSIONI
 10
-55.63426539133736
 20
46.16223468421647
 30
0.0
  0
VERTEX
  5
76B
  8
DIMENSIONI
 10
-55.69879341493618
 20
46.21901934498343
 30
0.0
  0
VERTEX
  5
76C
  8
DIMENSIONI
 10
-55.77733323794503
 20
46.25957981695983
 30
0.0
  0
VERTEX
  5
76D
  8
DIMENSIONI
 10
-55.86988486036391
 20
46.28391610014567
 30
0.0
  0
VERTEX
  5
76E
  8
DIMENSIONI
 10
-55.97644828219282
 20
46.29202819454095
 30
0.0
  0
VERTEX
  5
76F
  8
DIMENSIONI
 10
-56.12689076006892
 20
46.29202819454095
 30
0.0
  0
VERTEX
  5
770
  8
DIMENSIONI
 10
-56.12689076006892
 20
46.40117273731381
 30
0.0
  0
VERTEX
  5
771
  8
DIMENSIONI
 10
-54.49857217599813
 20
46.40117273731381
 30
0.0
  0
VERTEX
  5
772
  8
DIMENSIONI
 10
-54.07701981611612
 20
46.38845149837576
 30
0.0
  0
VERTEX
  5
773
  8
DIMENSIONI
 10
-53.88636255210433
 20
46.37254994970319
 30
0.0
  0
VERTEX
  5
774
  8
DIMENSIONI
 10
-53.70911789871199
 20
46.3502877815616
 30
0.0
  0
VERTEX
  5
775
  8
DIMENSIONI
 10
-53.54528585593913
 20
46.32166499395099
 30
0.0
  0
VERTEX
  5
776
  8
DIMENSIONI
 10
-53.39486642378574
 20
46.28668158687134
 30
0.0
  0
VERTEX
  5
777
  8
DIMENSIONI
 10
-53.25785960225181
 20
46.24533756032266
 30
0.0
  0
VERTEX
  5
778
  8
DIMENSIONI
 10
-53.13426539133736
 20
46.19763291430496
 30
0.0
  0
VERTEX
  5
779
  8
DIMENSIONI
 10
-53.02023515534916
 20
46.14250754557339
 30
0.0
  0
VERTEX
  5
77A
  8
DIMENSIONI
 10
-52.91192025859399
 20
46.07890135088313
 30
0.0
  0
VERTEX
  5
77B
  8
DIMENSIONI
 10
-52.80932070107187
 20
46.00681433023417
 30
0.0
  0
VERTEX
  5
77C
  8
DIMENSIONI
 10
-52.71243648278279
 20
45.9262464836265
 30
0.0
  0
VERTEX
  5
77D
  8
DIMENSIONI
 10
-52.62126760372674
 20
45.83719781106013
 30
0.0
  0
VERTEX
  5
77E
  8
DIMENSIONI
 10
-52.53581406390373
 20
45.73966831253505
 30
0.0
  0
VERTEX
  5
77F
  8
DIMENSIONI
 10
-52.45607586331376
 20
45.63365798805128
 30
0.0
  0
VERTEX
  5
780
  8
DIMENSIONI
 10
-52.38205300195683
 20
45.5191668376088
 30
0.0
  0
VERTEX
  5
781
  8
DIMENSIONI
 10
-52.31533563470018
 20
45.39813070191558
 30
0.0
  0
VERTEX
  5
782
  8
DIMENSIONI
 10
-52.2575139164111
 20
45.2724854216796
 30
0.0
  0
VERTEX
  5
783
  8
DIMENSIONI
 10
-52.20858784708956
 20
45.14223099690084
 30
0.0
  0
VERTEX
  5
784
  8
DIMENSIONI
 10
-52.16855742673559
 20
45.0073674275793
 30
0.0
  0
VERTEX
  5
785
  8
DIMENSIONI
 10
-52.13742265534916
 20
44.86789471371499
 30
0.0
  0
VERTEX
  5
786
  8
DIMENSIONI
 10
-52.11518353293028
 20
44.72381285530791
 30
0.0
  0
VERTEX
  5
787
  8
DIMENSIONI
 10
-52.10184005947895
 20
44.57512185235807
 30
0.0
  0
VERTEX
  5
788
  8
DIMENSIONI
 10
-52.09739223499518
 20
44.42182170486544
 30
0.0
  0
VERTEX
  5
789
  8
DIMENSIONI
 10
-52.10531996360875
 20
44.21740614439346
 30
0.0
  0
VERTEX
  5
78A
  8
DIMENSIONI
 10
-52.12910314944946
 20
44.02156359277104
 30
0.0
  0
VERTEX
  5
78B
  8
DIMENSIONI
 10
-52.1687417925173
 20
43.83429404999818
 30
0.0
  0
VERTEX
  5
78C
  8
DIMENSIONI
 10
-52.22423589281229
 20
43.65559751607488
 30
0.0
  0
VERTEX
  5
78D
  8
DIMENSIONI
 10
-52.29558545033441
 20
43.48547399100113
 30
0.0
  0
VERTEX
  5
78E
  8
DIMENSIONI
 10
-52.38279046508367
 20
43.32392347477694
 30
0.0
  0
VERTEX
  5
78F
  8
DIMENSIONI
 10
-52.48585093706008
 20
43.17094596740231
 30
0.0
  0
VERTEX
  5
790
  8
DIMENSIONI
 10
-52.60476686626362
 20
43.02654146887723
 30
0.0
  0
VERTEX
  5
791
  8
DIMENSIONI
 10
-52.75640772172085
 20
42.87997067241705
 30
0.0
  0
VERTEX
  5
792
  8
DIMENSIONI
 10
-52.92666952113088
 20
42.75294264881823
 30
0.0
  0
VERTEX
  5
793
  8
DIMENSIONI
 10
-53.1155522644937
 20
42.64545739808077
 30
0.0
  0
VERTEX
  5
794
  8
DIMENSIONI
 10
-53.32305595180934
 20
42.55751492020467
 30
0.0
  0
VERTEX
  5
795
  8
DIMENSIONI
 10
-53.54918058307777
 20
42.48911521518992
 30
0.0
  0
VERTEX
  5
796
  8
DIMENSIONI
 10
-53.79392615829902
 20
42.44025828303653
 30
0.0
  0
VERTEX
  5
797
  8
DIMENSIONI
 10
-54.05729267747306
 20
42.41094412374449
 30
0.0
  0
VERTEX
  5
798
  8
DIMENSIONI
 10
-54.3392801405999
 20
42.40117273731381
 30
0.0
  0
SEQEND
  5
A8C
  8
DIMENSIONI
  0
POLYLINE
  5
C6
  8
DIMENSIONI
 66
     1
 10
0.0
 20
0.0
 30
0.0
 70
     1
  0
VERTEX
  5
799
  8
DIMENSIONI
 10
-54.98529783971494
 20
42.69025828303653
 30
0.0
  0
VERTEX
  5
79A
  8
DIMENSIONI
 10
-54.64090255947895
 20
42.62831138038166
 30
0.0
  0
VERTEX
  5
79B
  8
DIMENSIONI
 10
-54.4913819105114
 20
42.61282465471794
 30
0.0
  0
VERTEX
  5
79C
  8
DIMENSIONI
 10
-54.35697925564415
 20
42.60766241283004
 30
0.0
  0
VERTEX
  5
79D
  8
DIMENSIONI
 10
-54.18952903440521
 20
42.61517531843476
 30
0.0
  0
VERTEX
  5
79E
  8
DIMENSIONI
 10
-54.02936126154385
 20
42.63771403524891
 30
0.0
  0
VERTEX
  5
79F
  8
DIMENSIONI
 10
-53.87647593706008
 20
42.67527856327251
 30
0.0
  0
VERTEX
  5
7A0
  8
DIMENSIONI
 10
-53.73087306095388
 20
42.72786890250555
 30
0.0
  0
VERTEX
  5
7A1
  8
DIMENSIONI
 10
-53.59255263322527
 20
42.79548505294802
 30
0.0
  0
VERTEX
  5
7A2
  8
DIMENSIONI
 10
-53.46151465387423
 20
42.87812701459994
 30
0.0
  0
VERTEX
  5
7A3
  8
DIMENSIONI
 10
-53.33775912290078
 20
42.9757947874613
 30
0.0
  0
VERTEX
  5
7A4
  8
DIMENSIONI
 10
-53.22128604030491
 20
43.0884883715321
 30
0.0
  0
VERTEX
  5
7A5
  8
DIMENSIONI
 10
-53.11550617304827
 20
43.21404146887724
 30
0.0
  0
VERTEX
  5
7A6
  8
DIMENSIONI
 10
-53.02383028809253
 20
43.3502877815616
 30
0.0
  0
VERTEX
  5
7A7
  8
DIMENSIONI
 10
-52.94625838543766
 20
43.49722730958521
 30
0.0
  0
VERTEX
  5
7A8
  8
DIMENSIONI
 10
-52.88279046508367
 20
43.65486005294804
 30
0.0
  0
VERTEX
  5
7A9
  8
DIMENSIONI
 10
-52.83342652703058
 20
43.82318601165011
 30
0.0
  0
VERTEX
  5
7AA
  8
DIMENSIONI
 10
-52.79816657127837
 20
44.00220518569139
 30
0.0
  0
VERTEX
  5
7AB
  8
DIMENSIONI
 10
-52.77701059782704
 20
44.19191757507193
 30
0.0
  0
VERTEX
  5
7AC
  8
DIMENSIONI
 10
-52.7699586066766
 20
44.39232317979169
 30
0.0
  0
VERTEX
  5
7AD
  8
DIMENSIONI
 10
-52.77701059782704
 20
44.59406543642886
 30
0.0
  0
VERTEX
  5
7AE
  8
DIMENSIONI
 10
-52.79816657127837
 20
44.78483792905423
 30
0.0
  0
VERTEX
  5
7AF
  8
DIMENSIONI
 10
-52.83342652703058
 20
44.9646406576678
 30
0.0
  0
VERTEX
  5
7B0
  8
DIMENSIONI
 10
-52.88279046508367
 20
45.13347362226957
 30
0.0
  0
VERTEX
  5
7B1
  8
DIMENSIONI
 10
-52.94625838543766
 20
45.29133682285953
 30
0.0
  0
VERTEX
  5
7B2
  8
DIMENSIONI
 10
-53.02383028809253
 20
45.4382302594377
 30
0.0
  0
VERTEX
  5
7B3
  8
DIMENSIONI
 10
-53.11550617304827
 20
45.57415393200408
 30
0.0
  0
VERTEX
  5
7B4
  8
DIMENSIONI
 10
-53.22128604030491
 20
45.69910784055865
 30
0.0
  0
VERTEX
  5
7B5
  8
DIMENSIONI
 10
-53.3381278544642
 20
45.81111005294804
 30
0.0
  0
VERTEX
  5
7B6
  8
DIMENSIONI
 10
-53.46298958012792
 20
45.90817863701884
 30
0.0
  0
VERTEX
  5
7B7
  8
DIMENSIONI
 10
-53.59587121729606
 20
45.99031359277105
 30
0.0
  0
VERTEX
  5
7B8
  8
DIMENSIONI
 10
-53.73677276596862
 20
46.05751492020467
 30
0.0
  0
VERTEX
  5
7B9
  8
DIMENSIONI
 10
-53.88569422614562
 20
46.10978261931972
 30
0.0
  0
VERTEX
  5
7BA
  8
DIMENSIONI
 10
-54.04263559782704
 20
46.14711669011617
 30
0.0
  0
VERTEX
  5
7BB
  8
DIMENSIONI
 10
-54.20759688101288
 20
46.16951713259404
 30
0.0
  0
VERTEX
  5
7BC
  8
DIMENSIONI
 10
-54.38057807570314
 20
46.17698394675334
 30
0.0
  0
VERTEX
  5
7BD
  8
DIMENSIONI
 10
-54.51793058307777
 20
46.17163733908372
 30
0.0
  0
VERTEX
  5
7BE
  8
DIMENSIONI
 10
-54.66450137953795
 20
46.15559751607488
 30
0.0
  0
VERTEX
  5
7BF
  8
DIMENSIONI
 10
-54.82029046508367
 20
46.12886447772679
 30
0.0
  0
VERTEX
  5
7C0
  8
DIMENSIONI
 10
-54.98529783971494
 20
46.09143822403948
 30
0.0
  0
SEQEND
  5
A8D
  8
DIMENSIONI
  0
POLYLINE
  5
C7
  8
DIMENSIONI
 66
     1
 10
0.0
 20
0.0
 30
0.0
 70
     1
  0
VERTEX
  5
7C1
  8
DIMENSIONI
 10
-50.60476686626362
 20
46.18288365176809
 30
0.0
  0
VERTEX
  5
7C2
  8
DIMENSIONI
 10
-50.60476686626362
 20
44.60176270781529
 30
0.0
  0
VERTEX
  5
7C3
  8
DIMENSIONI
 10
-49.72571081906597
 20
44.60176270781529
 30
0.0
  0
VERTEX
  5
7C4
  8
DIMENSIONI
 10
-49.56881553882998
 20
44.60821551017517
 30
0.0
  0
VERTEX
  5
7C5
  8
DIMENSIONI
 10
-49.44031258897748
 20
44.62757391725482
 30
0.0
  0
VERTEX
  5
7C6
  8
DIMENSIONI
 10
-49.34020196950845
 20
44.65983792905423
 30
0.0
  0
VERTEX
  5
7C7
  8
DIMENSIONI
 10
-49.2684836804229
 20
44.7050075455734
 30
0.0
  0
VERTEX
  5
7C8
  8
DIMENSIONI
 10
-49.20026834118987
 20
44.78575975796278
 30
0.0
  0
VERTEX
  5
7C9
  8
DIMENSIONI
 10
-49.14901465387423
 20
44.89232317979169
 30
0.0
  0
VERTEX
  5
7CA
  8
DIMENSIONI
 10
-49.114722618476
 20
45.02469781106013
 30
0.0
  0
VERTEX
  5
7CB
  8
DIMENSIONI
 10
-49.09739223499518
 20
45.18288365176809
 30
0.0
  0
VERTEX
  5
7CC
  8
DIMENSIONI
 10
-48.98824769222232
 20
45.18288365176809
 30
0.0
  0
VERTEX
  5
7CD
  8
DIMENSIONI
 10
-48.98824769222232
 20
43.79055326828727
 30
0.0
  0
VERTEX
  5
7CE
  8
DIMENSIONI
 10
-49.09739223499518
 20
43.79055326828727
 30
0.0
  0
VERTEX
  5
7CF
  8
DIMENSIONI
 10
-49.13869017009843
 20
44.03022878451145
 30
0.0
  0
VERTEX
  5
7D0
  8
DIMENSIONI
 10
-49.15933913765004
 20
44.11079663111912
 30
0.0
  0
VERTEX
  5
7D1
  8
DIMENSIONI
 10
-49.17998810520167
 20
44.16518453672384
 30
0.0
  0
VERTEX
  5
7D2
  8
DIMENSIONI
 10
-49.21077719074738
 20
44.21404146887723
 30
0.0
  0
VERTEX
  5
7D3
  8
DIMENSIONI
 10
-49.25004710225181
 20
44.2573674275793
 30
0.0
  0
VERTEX
  5
7D4
  8
DIMENSIONI
 10
-49.29779783971493
 20
44.29516241283004
 30
0.0
  0
VERTEX
  5
7D5
  8
DIMENSIONI
 10
-49.35402940313677
 20
44.32742642462945
 30
0.0
  0
VERTEX
  5
7D6
  8
DIMENSIONI
 10
-49.42261347393323
 20
44.35323763406898
 30
0.0
  0
VERTEX
  5
7D7
  8
DIMENSIONI
 10
-49.50742173352025
 20
44.37167421224007
 30
0.0
  0
VERTEX
  5
7D8
  8
DIMENSIONI
 10
-49.60845418189783
 20
44.38273615914272
 30
0.0
  0
VERTEX
  5
7D9
  8
DIMENSIONI
 10
-49.72571081906597
 20
44.38642347477694
 30
0.0
  0
VERTEX
  5
7DA
  8
DIMENSIONI
 10
-50.60476686626362
 20
44.38642347477694
 30
0.0
  0
VERTEX
  5
7DB
  8
DIMENSIONI
 10
-50.60476686626362
 20
43.06783940398048
 30
0.0
  0
VERTEX
  5
7DC
  8
DIMENSIONI
 10
-50.59886716124887
 20
42.85434382875924
 30
0.0
  0
VERTEX
  5
7DD
  8
DIMENSIONI
 10
-50.58116804620462
 20
42.74483055442296
 30
0.0
  0
VERTEX
  5
7DE
  8
DIMENSIONI
 10
-50.5487196686235
 20
42.6932081355439
 30
0.0
  0
VERTEX
  5
7DF
  8
DIMENSIONI
 10
-50.49857217599813
 20
42.65338512669435
 30
0.0
  0
VERTEX
  5
7E0
  8
DIMENSIONI
 10
-50.46243648278279
 20
42.63854368126662
 30
0.0
  0
VERTEX
  5
7E1
  8
DIMENSIONI
 10
-50.41302645328426
 20
42.62794264881823
 30
0.0
  0
VERTEX
  5
7E2
  8
DIMENSIONI
 10
-50.27438338543766
 20
42.61946182285953
 30
0.0
  0
VERTEX
  5
7E3
  8
DIMENSIONI
 10
-49.59591730874149
 20
42.61946182285953
 30
0.0
  0
VERTEX
  5
7E4
  8
DIMENSIONI
 10
-49.30314444738456
 20
42.63126123288903
 30
0.0
  0
VERTEX
  5
7E5
  8
DIMENSIONI
 10
-49.19160314944946
 20
42.64601049542591
 30
0.0
  0
VERTEX
  5
7E6
  8
DIMENSIONI
 10
-49.10329194000992
 20
42.66665946297753
 30
0.0
  0
VERTEX
  5
7E7
  8
DIMENSIONI
 10
-49.02733323794503
 20
42.69597362226958
 30
0.0
  0
VERTEX
  5
7E8
  8
DIMENSIONI
 10
-48.95284946213381
 20
42.73671846002768
 30
0.0
  0
VERTEX
  5
7E9
  8
DIMENSIONI
 10
-48.8798406125763
 20
42.78889397625187
 30
0.0
  0
VERTEX
  5
7EA
  8
DIMENSIONI
 10
-48.80830668927246
 20
42.85250017094214
 30
0.0
  0
VERTEX
  5
7EB
  8
DIMENSIONI
 10
-48.71630816419871
 20
42.95556064291854
 30
0.0
  0
VERTEX
  5
7EC
  8
DIMENSIONI
 10
-48.6232034444347
 20
43.08185120339051
 30
0.0
  0
VERTEX
  5
7ED
  8
DIMENSIONI
 10
-48.52899252998043
 20
43.23137185235807
 30
0.0
  0
VERTEX
  5
7EE
  8
DIMENSIONI
 10
-48.43367542083588
 20
43.40412258982119
 30
0.0
  0
VERTEX
  5
7EF
  8
DIMENSIONI
 10
-48.3156813205409
 20
43.40412258982119
 30
0.0
  0
VERTEX
  5
7F0
  8
DIMENSIONI
 10
-48.66081406390373
 20
42.40117273731381
 30
0.0
  0
VERTEX
  5
7F1
  8
DIMENSIONI
 10
-51.74340993411022
 20
42.40117273731381
 30
0.0
  0
VERTEX
  5
7F2
  8
DIMENSIONI
 10
-51.74340993411022
 20
42.51031728008667
 30
0.0
  0
VERTEX
  5
7F3
  8
DIMENSIONI
 10
-51.60181701375624
 20
42.51031728008667
 30
0.0
  0
VERTEX
  5
7F4
  8
DIMENSIONI
 10
-51.5319423824878
 20
42.51455769306602
 30
0.0
  0
VERTEX
  5
7F5
  8
DIMENSIONI
 10
-51.46391140903647
 20
42.52727893200408
 30
0.0
  0
VERTEX
  5
7F6
  8
DIMENSIONI
 10
-51.39772409340226
 20
42.54848099690084
 30
0.0
  0
VERTEX
  5
7F7
  8
DIMENSIONI
 10
-51.33338043558515
 20
42.57816388775629
 30
0.0
  0
VERTEX
  5
7F8
  8
DIMENSIONI
 10
-51.28996229399223
 20
42.60471256032267
 30
0.0
  0
VERTEX
  5
7F9
  8
DIMENSIONI
 10
-51.25410314944946
 20
42.63716093790379
 30
0.0
  0
VERTEX
  5
7FA
  8
DIMENSIONI
 10
-51.22580300195683
 20
42.67550902049965
 30
0.0
  0
VERTEX
  5
7FB
  8
DIMENSIONI
 10
-51.20506185151435
 20
42.71975680811028
 30
0.0
  0
VERTEX
  5
7FC
  8
DIMENSIONI
 10
-51.19022040608662
 20
42.77930695560291
 30
0.0
  0
VERTEX
  5
7FD
  8
DIMENSIONI
 10
-51.17961937363825
 20
42.86356211784479
 30
0.0
  0
VERTEX
  5
7FE
  8
DIMENSIONI
 10
-51.17113854767954
 20
43.10618748657635
 30
0.0
  0
VERTEX
  5
7FF
  8
DIMENSIONI
 10
-51.17113854767954
 20
45.7050075455734
 30
0.0
  0
VERTEX
  5
800
  8
DIMENSIONI
 10
-51.17593205800402
 20
45.87702081990969
 30
0.0
  0
VERTEX
  5
801
  8
DIMENSIONI
 10
-51.19031258897748
 20
46.01252966946721
 30
0.0
  0
VERTEX
  5
802
  8
DIMENSIONI
 10
-51.2142801405999
 20
46.11153409424597
 30
0.0
  0
VERTEX
  5
803
  8
DIMENSIONI
 10
-51.24783471287128
 20
46.17403409424597
 30
0.0
  0
VERTEX
  5
804
  8
DIMENSIONI
 10
-51.30978161552615
 20
46.22565651312502
 30
0.0
  0
VERTEX
  5
805
  8
DIMENSIONI
 10
-51.38942763322527
 20
46.26252966946721
 30
0.0
  0
VERTEX
  5
806
  8
DIMENSIONI
 10
-51.48677276596863
 20
46.28465356327252
 30
0.0
  0
VERTEX
  5
807
  8
DIMENSIONI
 10
-51.60181701375624
 20
46.29202819454095
 30
0.0
  0
VERTEX
  5
808
  8
DIMENSIONI
 10
-51.74340993411022
 20
46.29202819454095
 30
0.0
  0
VERTEX
  5
809
  8
DIMENSIONI
 10
-51.74340993411022
 20
46.40117273731381
 30
0.0
  0
VERTEX
  5
80A
  8
DIMENSIONI
 10
-48.66081406390373
 20
46.40117273731381
 30
0.0
  0
VERTEX
  5
80B
  8
DIMENSIONI
 10
-48.61656627629311
 20
45.52506654262355
 30
0.0
  0
VERTEX
  5
80C
  8
DIMENSIONI
 10
-48.73161052408072
 20
45.52506654262355
 30
0.0
  0
VERTEX
  5
80D
  8
DIMENSIONI
 10
-48.79687601080639
 20
45.79129073141411
 30
0.0
  0
VERTEX
  5
80E
  8
DIMENSIONI
 10
-48.83199769222232
 20
45.88734530368549
 30
0.0
  0
VERTEX
  5
80F
  8
DIMENSIONI
 10
-48.86877866567364
 20
45.95869486120762
 30
0.0
  0
VERTEX
  5
810
  8
DIMENSIONI
 10
-48.91090624679458
 20
46.0141889615026
 30
0.0
  0
VERTEX
  5
811
  8
DIMENSIONI
 10
-48.96206775121937
 20
46.06267716209258
 30
0.0
  0
VERTEX
  5
812
  8
DIMENSIONI
 10
-49.02226317894798
 20
46.10415946297753
 30
0.0
  0
VERTEX
  5
813
  8
DIMENSIONI
 10
-49.09149252998043
 20
46.13863586415747
 30
0.0
  0
VERTEX
  5
814
  8
DIMENSIONI
 10
-49.16173589281229
 20
46.15799427123711
 30
0.0
  0
VERTEX
  5
815
  8
DIMENSIONI
 10
-49.25447188101288
 20
46.17182170486544
 30
0.0
  0
VERTEX
  5
816
  8
DIMENSIONI
 10
-49.50742173352025
 20
46.18288365176809
 30
0.0
  0
SEQEND
  5
A8E
  8
DIMENSIONI
  0
POLYLINE
  5
C8
  8
DIMENSIONI
 66
     1
 10
0.0
 20
0.0
 30
0.0
 70
     1
  0
VERTEX
  5
817
  8
DIMENSIONI
 10
-44.46907365092439
 20
46.49261816504243
 30
0.0
  0
VERTEX
  5
818
  8
DIMENSIONI
 10
-44.36582881316627
 20
45.23008129188609
 30
0.0
  0
VERTEX
  5
819
  8
DIMENSIONI
 10
-44.46907365092439
 20
45.23008129188609
 30
0.0
  0
VERTEX
  5
81A
  8
DIMENSIONI
 10
-44.55296008160285
 20
45.4515045957209
 30
0.0
  0
VERTEX
  5
81B
  8
DIMENSIONI
 10
-44.64827719074739
 20
45.64379810604538
 30
0.0
  0
VERTEX
  5
81C
  8
DIMENSIONI
 10
-44.75502497835802
 20
45.80696182285954
 30
0.0
  0
VERTEX
  5
81D
  8
DIMENSIONI
 10
-44.87320344443471
 20
45.94099574616337
 30
0.0
  0
VERTEX
  5
81E
  8
DIMENSIONI
 10
-44.96561679251732
 20
46.02188623288905
 30
0.0
  0
VERTEX
  5
81F
  8
DIMENSIONI
 10
-45.06439076006893
 20
46.09199132138461
 30
0.0
  0
VERTEX
  5
820
  8
DIMENSIONI
 10
-45.16952534708958
 20
46.15131101165009
 30
0.0
  0
VERTEX
  5
821
  8
DIMENSIONI
 10
-45.28102055357925
 20
46.19984530368549
 30
0.0
  0
VERTEX
  5
822
  8
DIMENSIONI
 10
-45.39887637953796
 20
46.23759419749081
 30
0.0
  0
VERTEX
  5
823
  8
DIMENSIONI
 10
-45.52309282496569
 20
46.26455769306602
 30
0.0
  0
VERTEX
  5
824
  8
DIMENSIONI
 10
-45.65366988986244
 20
46.28073579041116
 30
0.0
  0
VERTEX
  5
825
  8
DIMENSIONI
 10
-45.79060757422823
 20
46.28612848952621
 30
0.0
  0
VERTEX
  5
826
  8
DIMENSIONI
 10
-45.97589518484769
 20
46.27667974321352
 30
0.0
  0
VERTEX
  5
827
  8
DIMENSIONI
 10
-46.14975211700109
 20
46.24833350427546
 30
0.0
  0
VERTEX
  5
828
  8
DIMENSIONI
 10
-46.31217837068839
 20
46.20108977271205
 30
0.0
  0
VERTEX
  5
829
  8
DIMENSIONI
 10
-46.46317394590963
 20
46.13494854852325
 30
0.0
  0
VERTEX
  5
82A
  8
DIMENSIONI
 10
-46.60273884266479
 20
46.0499098317091
 30
0.0
  0
VERTEX
  5
82B
  8
DIMENSIONI
 10
-46.73087306095388
 20
45.94597362226957
 30
0.0
  0
VERTEX
  5
82C
  8
DIMENSIONI
 10
-46.84757660077689
 20
45.82313992020467
 30
0.0
  0
VERTEX
  5
82D
  8
DIMENSIONI
 10
-46.95284946213383
 20
45.6814087255144
 30
0.0
  0
VERTEX
  5
82E
  8
DIMENSIONI
 10
-47.03097446213383
 20
45.55078556917221
 30
0.0
  0
VERTEX
  5
82F
  8
DIMENSIONI
 10
-47.09868279546716
 20
45.41407834203358
 30
0.0
  0
VERTEX
  5
830
  8
DIMENSIONI
 10
-47.15597446213383
 20
45.27128704409847
 30
0.0
  0
VERTEX
  5
831
  8
DIMENSIONI
 10
-47.20284946213383
 20
45.12241167536691
 30
0.0
  0
VERTEX
  5
832
  8
DIMENSIONI
 10
-47.23930779546716
 20
44.96745223583889
 30
0.0
  0
VERTEX
  5
833
  8
DIMENSIONI
 10
-47.26534946213383
 20
44.80640872551441
 30
0.0
  0
VERTEX
  5
834
  8
DIMENSIONI
 10
-47.28097446213383
 20
44.63928114439346
 30
0.0
  0
VERTEX
  5
835
  8
DIMENSIONI
 10
-47.28618279546716
 20
44.46606949247606
 30
0.0
  0
VERTEX
  5
836
  8
DIMENSIONI
 10
-47.27235536183884
 20
44.18620223583889
 30
0.0
  0
VERTEX
  5
837
  8
DIMENSIONI
 10
-47.23087306095388
 20
43.91887185235807
 30
0.0
  0
VERTEX
  5
838
  8
DIMENSIONI
 10
-47.1617358928123
 20
43.66407834203358
 30
0.0
  0
VERTEX
  5
839
  8
DIMENSIONI
 10
-47.11679673352026
 20
43.54138291430496
 30
0.0
  0
VERTEX
  5
83A
  8
DIMENSIONI
 10
-47.06494385741406
 20
43.42182170486544
 30
0.0
  0
VERTEX
  5
83B
  8
DIMENSIONI
 10
-47.00749087068841
 20
43.30776842315451
 30
0.0
  0
VERTEX
  5
83C
  8
DIMENSIONI
 10
-46.94575137953796
 20
43.20159677861174
 30
0.0
  0
VERTEX
  5
83D
  8
DIMENSIONI
 10
-46.87972538396274
 20
43.10330677123711
 30
0.0
  0
VERTEX
  5
83E
  8
DIMENSIONI
 10
-46.80941288396274
 20
43.01289840103063
 30
0.0
  0
VERTEX
  5
83F
  8
DIMENSIONI
 10
-46.73481387953797
 20
42.93037166799228
 30
0.0
  0
VERTEX
  5
840
  8
DIMENSIONI
 10
-46.6559283706884
 20
42.85572657212207
 30
0.0
  0
VERTEX
  5
841
  8
DIMENSIONI
 10
-46.57275635741406
 20
42.78896311342001
 30
0.0
  0
VERTEX
  5
842
  8
DIMENSIONI
 10
-46.48529783971495
 20
42.73008129188609
 30
0.0
  0
VERTEX
  5
843
  8
DIMENSIONI
 10
-46.30489592231082
 20
42.63393453672384
 30
0.0
  0
VERTEX
  5
844
  8
DIMENSIONI
 10
-46.12209724974444
 20
42.56525828303653
 30
0.0
  0
VERTEX
  5
845
  8
DIMENSIONI
 10
-45.93690182201583
 20
42.52405253082414
 30
0.0
  0
VERTEX
  5
846
  8
DIMENSIONI
 10
-45.74930963912497
 20
42.51031728008667
 30
0.0
  0
VERTEX
  5
847
  8
DIMENSIONI
 10
-45.5317580167061
 20
42.5243290794967
 30
0.0
  0
VERTEX
  5
848
  8
DIMENSIONI
 10
-45.32158102555566
 20
42.56636447772679
 30
0.0
  0
VERTEX
  5
849
  8
DIMENSIONI
 10
-45.11877866567364
 20
42.63568601165009
 30
0.0
  0
VERTEX
  5
84A
  8
DIMENSIONI
 10
-44.92335093706008
 20
42.73155621813977
 30
0.0
  0
VERTEX
  5
84B
  8
DIMENSIONI
 10
-44.92335093706008
 20
43.88789840103063
 30
0.0
  0
VERTEX
  5
84C
  8
DIMENSIONI
 10
-44.93478161552616
 20
44.13679220634036
 30
0.0
  0
VERTEX
  5
84D
  8
DIMENSIONI
 10
-44.94906996360875
 20
44.22224574616337
 30
0.0
  0
VERTEX
  5
84E
  8
DIMENSIONI
 10
-44.96907365092439
 20
44.28170371076514
 30
0.0
  0
VERTEX
  5
84F
  8
DIMENSIONI
 10
-44.99506922614562
 20
44.32539840103063
 30
0.0
  0
VERTEX
  5
850
  8
DIMENSIONI
 10
-45.02733323794503
 20
44.36356211784479
 30
0.0
  0
VERTEX
  5
851
  8
DIMENSIONI
 10
-45.06586568632262
 20
44.39619486120762
 30
0.0
  0
VERTEX
  5
852
  8
DIMENSIONI
 10
-45.11066657127837
 20
44.42329663111912
 30
0.0
  0
VERTEX
  5
853
  8
DIMENSIONI
 10
-45.1677277807179
 20
44.44459087890674
 30
0.0
  0
VERTEX
  5
854
  8
DIMENSIONI
 10
-45.24304120254681
 20
44.45980105589789
 30
0.0
  0
VERTEX
  5
855
  8
DIMENSIONI
 10
-45.44842468337276
 20
44.47196919749081
 30
0.0
  0
VERTEX
  5
856
  8
DIMENSIONI
 10
-45.44842468337276
 20
44.58406359277105
 30
0.0
  0
VERTEX
  5
857
  8
DIMENSIONI
 10
-43.89975211700109
 20
44.58406359277105
 30
0.0
  0
VERTEX
  5
858
  8
DIMENSIONI
 10
-43.89975211700109
 20
44.47196919749081
 30
0.0
  0
VERTEX
  5
859
  8
DIMENSIONI
 10
-43.97349842968545
 20
44.47196919749081
 30
0.0
  0
VERTEX
  5
85A
  8
DIMENSIONI
 10
-44.07950875416923
 20
44.46238217684184
 30
0.0
  0
VERTEX
  5
85B
  8
DIMENSIONI
 10
-44.16745123204533
 20
44.43362111489494
 30
0.0
  0
VERTEX
  5
85C
  8
DIMENSIONI
 10
-44.23732586331376
 20
44.3856860116501
 30
0.0
  0
VERTEX
  5
85D
  8
DIMENSIONI
 10
-44.28913264797453
 20
44.31857686710732
 30
0.0
  0
VERTEX
  5
85E
  8
DIMENSIONI
 10
-44.31494385741406
 20
44.2507302594377
 30
0.0
  0
VERTEX
  5
85F
  8
DIMENSIONI
 10
-44.33338043558516
 20
44.15633497920172
 30
0.0
  0
VERTEX
  5
860
  8
DIMENSIONI
 10
-44.34444238248781
 20
44.03539102639935
 30
0.0
  0
VERTEX
  5
861
  8
DIMENSIONI
 10
-44.34812969812203
 20
43.88789840103063
 30
0.0
  0
VERTEX
  5
862
  8
DIMENSIONI
 10
-44.34812969812203
 20
42.66370961047016
 30
0.0
  0
VERTEX
  5
863
  8
DIMENSIONI
 10
-44.51719311995094
 20
42.578348253538
 30
0.0
  0
VERTEX
  5
864
  8
DIMENSIONI
 10
-44.68515034708958
 20
42.50515503819877
 30
0.0
  0
VERTEX
  5
865
  8
DIMENSIONI
 10
-44.85200137953796
 20
42.44412996445246
 30
0.0
  0
VERTEX
  5
866
  8
DIMENSIONI
 10
-45.01774621729607
 20
42.39527303229907
 30
0.0
  0
VERTEX
  5
867
  8
DIMENSIONI
 10
-45.18754710225182
 20
42.35784677861176
 30
0.0
  0
VERTEX
  5
868
  8
DIMENSIONI
 10
-45.36656627629312
 20
42.33111374026367
 30
0.0
  0
VERTEX
  5
869
  8
DIMENSIONI
 10
-45.55480373941997
 20
42.31507391725482
 30
0.0
  0
VERTEX
  5
86A
  8
DIMENSIONI
 10
-45.75225949163235
 20
42.3097273095852
 30
0.0
  0
VERTEX
  5
86B
  8
DIMENSIONI
 10
-46.03337121729607
 20
42.32134235383299
 30
0.0
  0
VERTEX
  5
86C
  8
DIMENSIONI
 10
-46.2970603765881
 20
42.35618748657635
 30
0.0
  0
VERTEX
  5
86D
  8
DIMENSIONI
 10
-46.54332696950846
 20
42.41426270781529
 30
0.0
  0
VERTEX
  5
86E
  8
DIMENSIONI
 10
-46.77217099605713
 20
42.4955680175498
 30
0.0
  0
VERTEX
  5
86F
  8
DIMENSIONI
 10
-46.98359245623412
 20
42.60010341577989
 30
0.0
  0
VERTEX
  5
870
  8
DIMENSIONI
 10
-47.17759135003943
 20
42.72786890250556
 30
0.0
  0
VERTEX
  5
871
  8
DIMENSIONI
 10
-47.35416767747306
 20
42.87886447772679
 30
0.0
  0
VERTEX
  5
872
  8
DIMENSIONI
 10
-47.51332143853501
 20
43.0530901414436
 30
0.0
  0
VERTEX
  5
873
  8
DIMENSIONI
 10
-47.61910130579165
 20
43.19514397625187
 30
0.0
  0
VERTEX
  5
874
  8
DIMENSIONI
 10
-47.71077719074739
 20
43.34254441872974
 30
0.0
  0
VERTEX
  5
875
  8
DIMENSIONI
 10
-47.78834909340226
 20
43.49529146887724
 30
0.0
  0
VERTEX
  5
876
  8
DIMENSIONI
 10
-47.85181701375625
 20
43.65338512669435
 30
0.0
  0
VERTEX
  5
877
  8
DIMENSIONI
 10
-47.90118095180934
 20
43.81682539218107
 30
0.0
  0
VERTEX
  5
878
  8
DIMENSIONI
 10
-47.93644090756155
 20
43.98561226533742
 30
0.0
  0
VERTEX
  5
879
  8
DIMENSIONI
 10
-47.95759688101288
 20
44.15974574616338
 30
0.0
  0
VERTEX
  5
87A
  8
DIMENSIONI
 10
-47.96464887216332
 20
44.33922583465895
 30
0.0
  0
VERTEX
  5
87B
  8
DIMENSIONI
 10
-47.96068500785654
 20
44.47054036268255
 30
0.0
  0
VERTEX
  5
87C
  8
DIMENSIONI
 10
-47.94879341493619
 20
44.60047214734331
 30
0.0
  0
VERTEX
  5
87D
  8
DIMENSIONI
 10
-47.92897409340226
 20
44.72902118864125
 30
0.0
  0
VERTEX
  5
87E
  8
DIMENSIONI
 10
-47.90122704325477
 20
44.85618748657635
 30
0.0
  0
VERTEX
  5
87F
  8
DIMENSIONI
 10
-47.86555226449372
 20
44.98197104114862
 30
0.0
  0
VERTEX
  5
880
  8
DIMENSIONI
 10
-47.82194975711909
 20
45.10637185235805
 30
0.0
  0
VERTEX
  5
881
  8
DIMENSIONI
 10
-47.77041952113088
 20
45.22938992020467
 30
0.0
  0
VERTEX
  5
882
  8
DIMENSIONI
 10
-47.71096155652911
 20
45.35102524468844
 30
0.0
  0
VERTEX
  5
883
  8
DIMENSIONI
 10
-47.63223736773855
 20
45.49068232433446
 30
0.0
  0
VERTEX
  5
884
  8
DIMENSIONI
 10
-47.54650727924297
 20
45.62204294380349
 30
0.0
  0
VERTEX
  5
885
  8
DIMENSIONI
 10
-47.45377129104239
 20
45.74510710309553
 30
0.0
  0
VERTEX
  5
886
  8
DIMENSIONI
 10
-47.35402940313678
 20
45.85987480221057
 30
0.0
  0
VERTEX
  5
887
  8
DIMENSIONI
 10
-47.24728161552616
 20
45.96634604114863
 30
0.0
  0
VERTEX
  5
888
  8
DIMENSIONI
 10
-47.13352792821053
 20
46.06452081990969
 30
0.0
  0
VERTEX
  5
889
  8
DIMENSIONI
 10
-47.01276834118988
 20
46.15439913849376
 30
0.0
  0
VERTEX
  5
88A
  8
DIMENSIONI
 10
-46.88500285446421
 20
46.23598099690084
 30
0.0
  0
VERTEX
  5
88B
  8
DIMENSIONI
 10
-46.77263191051141
 20
46.29613033318402
 30
0.0
  0
VERTEX
  5
88C
  8
DIMENSIONI
 10
-46.65528309045241
 20
46.34825975796278
 30
0.0
  0
VERTEX
  5
88D
  8
DIMENSIONI
 10
-46.53295639428721
 20
46.39236927123711
 30
0.0
  0
VERTEX
  5
88E
  8
DIMENSIONI
 10
-46.40565182201583
 20
46.42845887300703
 30
0.0
  0
VERTEX
  5
88F
  8
DIMENSIONI
 10
-46.27336937363825
 20
46.45652856327251
 30
0.0
  0
VERTEX
  5
890
  8
DIMENSIONI
 10
-46.13610904915447
 20
46.47657834203358
 30
0.0
  0
VERTEX
  5
891
  8
DIMENSIONI
 10
-45.99387084856451
 20
46.48860820929022
 30
0.0
  0
VERTEX
  5
892
  8
DIMENSIONI
 10
-45.84665477186834
 20
46.49261816504243
 30
0.0
  0
VERTEX
  5
893
  8
DIMENSIONI
 10
-45.638321438535
 20
46.48376860752031
 30
0.0
  0
VERTEX
  5
894
  8
DIMENSIONI
 10
-45.44989960962645
 20
46.45721993495393
 30
0.0
  0
VERTEX
  5
895
  8
DIMENSIONI
 10
-45.23419164502468
 20
46.40043527418697
 30
0.0
  0
VERTEX
  5
896
  8
DIMENSIONI
 10
-44.9439999046117
 20
46.30087775206308
 30
0.0
  0
VERTEX
  5
897
  8
DIMENSIONI
 10
-44.80609429989194
 20
46.25441757507192
 30
0.0
  0
VERTEX
  5
898
  8
DIMENSIONI
 10
-44.7227609665586
 20
46.23893084940821
 30
0.0
  0
VERTEX
  5
899
  8
DIMENSIONI
 10
-44.67076981611613
 20
46.25183645412797
 30
0.0
  0
VERTEX
  5
89A
  8
DIMENSIONI
 10
-44.62689076006893
 20
46.29055326828727
 30
0.0
  0
VERTEX
  5
89B
  8
DIMENSIONI
 10
-44.60891509635211
 20
46.32254073141411
 30
0.0
  0
VERTEX
  5
89C
  8
DIMENSIONI
 10
-44.59481111405123
 20
46.36688070191558
 30
0.0
  0
VERTEX
  5
89D
  8
DIMENSIONI
 10
-44.57821819369725
 20
46.49261816504243
 30
0.0
  0
SEQEND
  5
A8F
  8
DIMENSIONI
  0
POLYLINE
  5
C9
  8
DIMENSIONI
 66
     1
 10
0.0
 20
0.0
 30
0.0
  0
VERTEX
  5
89E
  8
DIMENSIONI
 10
-36.36753236814715
 20
40.0
 30
0.0
  0
VERTEX
  5
89F
  8
DIMENSIONI
 10
-33.85485248455353
 20
40.0
 30
0.0
  0
SEQEND
  5
A90
  8
DIMENSIONI
  0
POLYLINE
  5
CA
  8
DIMENSIONI
 66
     1
 10
0.0
 20
0.0
 30
0.0
  0
VERTEX
  5
8A0
  8
DIMENSIONI
 10
-36.36753236814715
 20
40.0
 30
0.0
  0
VERTEX
  5
8A1
  8
DIMENSIONI
 10
-38.14426535278722
 20
38.22326701535992
 30
0.0
  0
SEQEND
  5
A91
  8
DIMENSIONI
  0
POLYLINE
  5
CB
  8
DIMENSIONI
 66
     1
 10
0.0
 20
0.0
 30
0.0
  0
VERTEX
  5
8A2
  8
DIMENSIONI
 10
-33.85485248455353
 20
40.0
 30
0.0
  0
VERTEX
  5
8A3
  8
DIMENSIONI
 10
-35.17364078360895
 20
43.11976495545323
 30
0.0
  0
SEQEND
  5
A92
  8
DIMENSIONI
  0
POLYLINE
  5
CC
  8
DIMENSIONI
 66
     1
 10
0.0
 20
0.0
 30
0.0
  0
VERTEX
  5
8A4
  8
DIMENSIONI
 10
-35.17364078360895
 20
43.11976495545323
 30
0.0
  0
VERTEX
  5
8A5
  8
DIMENSIONI
 10
-36.7037801064066
 20
41.83186990816547
 30
0.0
  0
SEQEND
  5
A93
  8
DIMENSIONI
  0
POLYLINE
  5
CD
  8
DIMENSIONI
 66
     1
 10
0.0
 20
0.0
 30
0.0
  0
VERTEX
  5
8A6
  8
DIMENSIONI
 10
-36.7037801064066
 20
41.83186990816547
 30
0.0
  0
VERTEX
  5
8A7
  8
DIMENSIONI
 10
-33.85485248455353
 20
40.0
 30
0.0
  0
SEQEND
  5
A94
  8
DIMENSIONI
  0
POLYLINE
  5
CE
  8
DIMENSIONI
 66
     1
 10
0.0
 20
0.0
 30
0.0
  0
VERTEX
  5
8A8
  8
DIMENSIONI
 10
-38.14426535278722
 20
38.22326701535992
 30
0.0
  0
VERTEX
  5
8A9
  8
DIMENSIONI
 10
-37.42509694658064
 20
41.53309069019728
 30
0.0
  0
SEQEND
  5
A95
  8
DIMENSIONI
  0
POLYLINE
  5
CF
  8
DIMENSIONI
 66
     1
 10
0.0
 20
0.0
 30
0.0
  0
VERTEX
  5
8AA
  8
DIMENSIONI
 10
-37.42509694658064
 20
41.53309069019728
 30
0.0
  0
VERTEX
  5
8AB
  8
DIMENSIONI
 10
-39.41774815928481
 20
41.3617981202806
 30
0.0
  0
SEQEND
  5
A96
  8
DIMENSIONI
  0
POLYLINE
  5
D0
  8
DIMENSIONI
 66
     1
 10
0.0
 20
0.0
 30
0.0
  0
VERTEX
  5
8AC
  8
DIMENSIONI
 10
-39.41774815928481
 20
41.3617981202806
 30
0.0
  0
VERTEX
  5
8AD
  8
DIMENSIONI
 10
-38.14426535278722
 20
38.22326701535992
 30
0.0
  0
SEQEND
  5
A97
  8
DIMENSIONI
  0
POLYLINE
  5
D1
  8
DIMENSIONI
 66
     1
 10
0.0
 20
0.0
 30
0.0
  0
VERTEX
  5
8AE
  8
DIMENSIONI
 10
-38.5255067645753
 20
41.28713119058492
 30
0.0
  0
VERTEX
  5
8AF
  8
DIMENSIONI
 10
-43.39975211700109
 20
44.19439145931428
 30
0.0
  0
SEQEND
  5
A98
  8
DIMENSIONI
  0
POLYLINE
  5
D2
  8
DIMENSIONI
 66
     1
 10
0.0
 20
0.0
 30
0.0
  0
VERTEX
  5
8B0
  8
DIMENSIONI
 10
-35.93871044500778
 20
42.47581743180935
 30
0.0
 42
0.1419933544724905
  0
VERTEX
  5
8B1
  8
DIMENSIONI
 10
-37.32909333043546
 20
42.32141351620498
 30
0.0
  0
SEQEND
  5
A99
  8
DIMENSIONI
  0
POLYLINE
  5
D3
  8
DIMENSIONI
 66
     1
 10
0.0
 20
0.0
 30
0.0
  0
VERTEX
  5
8B2
  8
DIMENSIONI
 10
-37.32909333043546
 20
42.32141351620498
 30
0.0
 42
0.1419933544724831
  0
VERTEX
  5
8B3
  8
DIMENSIONI
 10
-38.42142255293273
 20
41.44744440523894
 30
0.0
  0
SEQEND
  5
A9A
  8
DIMENSIONI
  0
POLYLINE
  5
D4
  8
DIMENSIONI
 66
     1
 10
0.0
 20
0.0
 30
0.0
 70
     1
  0
VERTEX
  5
8B4
  8
DIMENSIONI
 10
-16.22503490698194
 20
-11.62154776716844
 30
0.0
  0
VERTEX
  5
8B5
  8
DIMENSIONI
 10
-16.45512340255717
 20
-12.12302269342212
 30
0.0
  0
VERTEX
  5
8B6
  8
DIMENSIONI
 10
-17.65866322556602
 20
-12.12302269342212
 30
0.0
  0
VERTEX
  5
8B7
  8
DIMENSIONI
 10
-17.92120009872236
 20
-12.65989584976431
 30
0.0
  0
VERTEX
  5
8B8
  8
DIMENSIONI
 10
-17.73084242910583
 20
-12.69414179371711
 30
0.0
  0
VERTEX
  5
8B9
  8
DIMENSIONI
 10
-17.55062487748342
 20
-12.73935750168171
 30
0.0
  0
VERTEX
  5
8BA
  8
DIMENSIONI
 10
-17.3805474438551
 20
-12.79554297365811
 30
0.0
  0
VERTEX
  5
8BB
  8
DIMENSIONI
 10
-17.22061012822088
 20
-12.86269820964631
 30
0.0
  0
VERTEX
  5
8BC
  8
DIMENSIONI
 10
-17.07081293058076
 20
-12.94082320964631
 30
0.0
  0
VERTEX
  5
8BD
  8
DIMENSIONI
 10
-16.93115585093475
 20
-13.02991797365811
 30
0.0
  0
VERTEX
  5
8BE
  8
DIMENSIONI
 10
-16.80163888928283
 20
-13.12998250168171
 30
0.0
  0
VERTEX
  5
8BF
  8
DIMENSIONI
 10
-16.68226204562501
 20
-13.24101679371711
 30
0.0
  0
VERTEX
  5
8C0
  8
DIMENSIONI
 10
-16.59030961199669
 20
-13.34352416834838
 30
0.0
  0
VERTEX
  5
8C1
  8
DIMENSIONI
 10
-16.51061750285215
 20
-13.45045632174071
 30
0.0
  0
VERTEX
  5
8C2
  8
DIMENSIONI
 10
-16.44318571819139
 20
-13.5618132538941
 30
0.0
  0
VERTEX
  5
8C3
  8
DIMENSIONI
 10
-16.38801425801439
 20
-13.67759496480855
 30
0.0
  0
VERTEX
  5
8C4
  8
DIMENSIONI
 10
-16.34510312232118
 20
-13.79780145448407
 30
0.0
  0
VERTEX
  5
8C5
  8
DIMENSIONI
 10
-16.31445231111174
 20
-13.92243272292065
 30
0.0
  0
VERTEX
  5
8C6
  8
DIMENSIONI
 10
-16.29606182438607
 20
-14.05148877011829
 30
0.0
  0
VERTEX
  5
8C7
  8
DIMENSIONI
 10
-16.28993166214419
 20
-14.18496959607699
 30
0.0
  0
VERTEX
  5
8C8
  8
DIMENSIONI
 10
-16.29795157364861
 20
-14.33983685271416
 30
0.0
  0
VERTEX
  5
8C9
  8
DIMENSIONI
 10
-16.32201130816189
 20
-14.48880440433658
 30
0.0
  0
VERTEX
  5
8CA
  8
DIMENSIONI
 10
-16.36211086568401
 20
-14.63187225094425
 30
0.0
  0
VERTEX
  5
8CB
  8
DIMENSIONI
 10
-16.41825024621498
 20
-14.76904039253717
 30
0.0
  0
VERTEX
  5
8CC
  8
DIMENSIONI
 10
-16.48655776833887
 20
-14.89828080551652
 30
0.0
  0
VERTEX
  5
8CD
  8
DIMENSIONI
 10
-16.56316175063976
 20
-15.01756546628348
 30
0.0
  0
VERTEX
  5
8CE
  8
DIMENSIONI
 10
-16.64806219311764
 20
-15.12689437483805
 30
0.0
  0
VERTEX
  5
8CF
  8
DIMENSIONI
 10
-16.74125909577251
 20
-15.22626753118024
 30
0.0
  0
VERTEX
  5
8D0
  8
DIMENSIONI
 10
-16.84136971524153
 20
-15.31605366687345
 30
0.0
  0
VERTEX
  5
8D1
  8
DIMENSIONI
 10
-16.94701130816188
 20
-15.39662151348112
 30
0.0
  0
VERTEX
  5
8D2
  8
DIMENSIONI
 10
-17.05818387453356
 20
-15.46797107100325
 30
0.0
  0
VERTEX
  5
8D3
  8
DIMENSIONI
 10
-17.17488741435658
 20
-15.53010233943982
 30
0.0
  0
VERTEX
  5
8D4
  8
DIMENSIONI
 10
-17.34561012822088
 20
-15.60108316539852
 30
0.0
  0
VERTEX
  5
8D5
  8
DIMENSIONI
 10
-17.51854523146572
 20
-15.65178375536903
 30
0.0
  0
VERTEX
  5
8D6
  8
DIMENSIONI
 10
-17.69369272409109
 20
-15.68220410935133
 30
0.0
  0
VERTEX
  5
8D7
  8
DIMENSIONI
 10
-17.87105260609699
 20
-15.69234422734543
 30
0.0
  0
VERTEX
  5
8D8
  8
DIMENSIONI
 10
-18.03873328456307
 20
-15.68469304740442
 30
0.0
  0
VERTEX
  5
8D9
  8
DIMENSIONI
 10
-18.18189331406159
 20
-15.66173950758142
 30
0.0
  0
VERTEX
  5
8DA
  8
DIMENSIONI
 10
-18.30053269459256
 20
-15.6234836078764
 30
0.0
  0
VERTEX
  5
8DB
  8
DIMENSIONI
 10
-18.39465142615598
 20
-15.56992534828938
 30
0.0
  0
VERTEX
  5
8DC
  8
DIMENSIONI
 10
-18.46627753235068
 20
-15.50714879961681
 30
0.0
  0
VERTEX
  5
8DD
  8
DIMENSIONI
 10
-18.51743903677546
 20
-15.44123803265516
 30
0.0
  0
VERTEX
  5
8DE
  8
DIMENSIONI
 10
-18.54813593943032
 20
-15.37219304740442
 30
0.0
  0
VERTEX
  5
8DF
  8
DIMENSIONI
 10
-18.55836824031528
 20
-15.3000138438646
 30
0.0
  0
VERTEX
  5
8E0
  8
DIMENSIONI
 10
-18.55412782733593
 20
-15.25991428634248
 30
0.0
  0
VERTEX
  5
8E1
  8
DIMENSIONI
 10
-18.54140658839787
 20
-15.2222114839826
 30
0.0
  0
VERTEX
  5
8E2
  8
DIMENSIONI
 10
-18.52020452350112
 20
-15.18690543678496
 30
0.0
  0
VERTEX
  5
8E3
  8
DIMENSIONI
 10
-18.49052163264566
 20
-15.15399614474956
 30
0.0
  0
VERTEX
  5
8E4
  8
DIMENSIONI
 10
-18.45438593943032
 20
-15.12624909460206
 30
0.0
  0
VERTEX
  5
8E5
  8
DIMENSIONI
 10
-18.41382546745392
 20
-15.10642977306814
 30
0.0
  0
VERTEX
  5
8E6
  8
DIMENSIONI
 10
-18.36884021671646
 20
-15.09453818014779
 30
0.0
  0
VERTEX
  5
8E7
  8
DIMENSIONI
 10
-18.31943018721793
 20
-15.090574315841
 30
0.0
  0
VERTEX
  5
8E8
  8
DIMENSIONI
 10
-18.24752753235067
 20
-15.09647402085575
 30
0.0
  0
VERTEX
  5
8E9
  8
DIMENSIONI
 10
-18.18521189813239
 20
-15.1141731359
 30
0.0
  0
VERTEX
  5
8EA
  8
DIMENSIONI
 10
-18.10740953825038
 20
-15.15620853413009
 30
0.0
  0
VERTEX
  5
8EB
  8
DIMENSIONI
 10
-17.98904670639197
 20
-15.23511708870236
 30
0.0
  0
VERTEX
  5
8EC
  8
DIMENSIONI
 10
-17.878058505802
 20
-15.30222623324513
 30
0.0
  0
VERTEX
  5
8ED
  8
DIMENSIONI
 10
-17.76633284208519
 20
-15.35016133648997
 30
0.0
  0
VERTEX
  5
8EE
  8
DIMENSIONI
 10
-17.65386971524153
 20
-15.37892239843687
 30
0.0
  0
VERTEX
  5
8EF
  8
DIMENSIONI
 10
-17.54066912527103
 20
-15.38850941908584
 30
0.0
  0
VERTEX
  5
8F0
  8
DIMENSIONI
 10
-17.45569954562501
 20
-15.38443032616549
 30
0.0
  0
VERTEX
  5
8F1
  8
DIMENSIONI
 10
-17.37335717836837
 20
-15.37219304740443
 30
0.0
  0
VERTEX
  5
8F2
  8
DIMENSIONI
 10
-17.29364202350112
 20
-15.35179758280266
 30
0.0
  0
VERTEX
  5
8F3
  8
DIMENSIONI
 10
-17.21655408102324
 20
-15.32324393236018
 30
0.0
  0
VERTEX
  5
8F4
  8
DIMENSIONI
 10
-17.14209335093474
 20
-15.28653209607699
 30
0.0
  0
VERTEX
  5
8F5
  8
DIMENSIONI
 10
-17.07025983323563
 20
-15.2416620739531
 30
0.0
  0
VERTEX
  5
8F6
  8
DIMENSIONI
 10
-17.00105352792589
 20
-15.18863386598849
 30
0.0
  0
VERTEX
  5
8F7
  8
DIMENSIONI
 10
-16.93447443500554
 20
-15.12744747218319
 30
0.0
  0
VERTEX
  5
8F8
  8
DIMENSIONI
 10
-16.87328804120023
 20
-15.06040746480856
 30
0.0
  0
VERTEX
  5
8F9
  8
DIMENSIONI
 10
-16.82025983323563
 20
-14.98981841613599
 30
0.0
  0
VERTEX
  5
8FA
  8
DIMENSIONI
 10
-16.77538981111174
 20
-14.91568032616549
 30
0.0
  0
VERTEX
  5
8FB
  8
DIMENSIONI
 10
-16.73867797482855
 20
-14.83799319489705
 30
0.0
  0
VERTEX
  5
8FC
  8
DIMENSIONI
 10
-16.71012432438607
 20
-14.75675702233068
 30
0.0
  0
VERTEX
  5
8FD
  8
DIMENSIONI
 10
-16.6897288597843
 20
-14.67197180846637
 30
0.0
  0
VERTEX
  5
8FE
  8
DIMENSIONI
 10
-16.67749158102324
 20
-14.58363755330413
 30
0.0
  0
VERTEX
  5
8FF
  8
DIMENSIONI
 10
-16.67341248810289
 20
-14.49175425684395
 30
0.0
  0
VERTEX
  5
900
  8
DIMENSIONI
 10
-16.68797738485805
 20
-14.31338036303864
 30
0.0
  0
VERTEX
  5
901
  8
DIMENSIONI
 10
-16.73167207512354
 20
-14.14109054002979
 30
0.0
  0
VERTEX
  5
902
  8
DIMENSIONI
 10
-16.80449655889935
 20
-13.9748847878174
 30
0.0
  0
VERTEX
  5
903
  8
DIMENSIONI
 10
-16.90645083618548
 20
-13.81476310640148
 30
0.0
  0
VERTEX
  5
904
  8
DIMENSIONI
 10
-17.03403195712944
 20
-13.66662520079676
 30
0.0
  0
VERTEX
  5
905
  8
DIMENSIONI
 10
-17.1837369718787
 20
-13.53637077601799
 30
0.0
  0
VERTEX
  5
906
  8
DIMENSIONI
 10
-17.35556588043327
 20
-13.42399983206519
 30
0.0
  0
VERTEX
  5
907
  8
DIMENSIONI
 10
-17.54951868279315
 20
-13.32951236893835
 30
0.0
  0
VERTEX
  5
908
  8
DIMENSIONI
 10
-17.72485054120023
 20
-13.27014658722743
 30
0.0
  0
VERTEX
  5
909
  8
DIMENSIONI
 10
-17.92931219311764
 20
-13.22479260492655
 30
0.0
  0
VERTEX
  5
90A
  8
DIMENSIONI
 10
-18.16290363854537
 20
-13.19345042203569
 30
0.0
  0
VERTEX
  5
90B
  8
DIMENSIONI
 10
-18.42562487748342
 20
-13.17612003855487
 30
0.0
  0
VERTEX
  5
90C
  8
DIMENSIONI
 10
-17.65866322556602
 20
-11.62154776716844
 30
0.0
  0
SEQEND
  5
A9B
  8
DIMENSIONI
  0
POLYLINE
  5
D5
  8
DIMENSIONI
 66
     1
 10
0.0
 20
0.0
 30
0.0
 70
     1
  0
VERTEX
  5
90D
  8
DIMENSIONI
 10
-13.11884021671646
 20
-11.53895189696195
 30
0.0
  0
VERTEX
  5
90E
  8
DIMENSIONI
 10
-13.11884021671646
 20
-11.64809643973481
 30
0.0
  0
VERTEX
  5
90F
  8
DIMENSIONI
 10
-13.30458874179021
 20
-11.67215617424808
 30
0.0
  0
VERTEX
  5
910
  8
DIMENSIONI
 10
-13.47245378603799
 20
-11.70598729519203
 30
0.0
  0
VERTEX
  5
911
  8
DIMENSIONI
 10
-13.62243534945982
 20
-11.74958980256667
 30
0.0
  0
VERTEX
  5
912
  8
DIMENSIONI
 10
-13.75453343205569
 20
-11.80296369637198
 30
0.0
  0
VERTEX
  5
913
  8
DIMENSIONI
 10
-13.87732104267516
 20
-11.86887446333363
 30
0.0
  0
VERTEX
  5
914
  8
DIMENSIONI
 10
-13.99937119016779
 20
-11.95008759017729
 30
0.0
  0
VERTEX
  5
915
  8
DIMENSIONI
 10
-14.12068387453357
 20
-12.04660307690295
 30
0.0
  0
VERTEX
  5
916
  8
DIMENSIONI
 10
-14.24125909577251
 20
-12.15842092351062
 30
0.0
  0
VERTEX
  5
917
  8
DIMENSIONI
 10
-14.35630334356011
 20
-12.28130071702094
 30
0.0
  0
VERTEX
  5
918
  8
DIMENSIONI
 10
-14.46102310757191
 20
-12.41100204445457
 30
0.0
  0
VERTEX
  5
919
  8
DIMENSIONI
 10
-14.5554183878079
 20
-12.54752490581151
 30
0.0
  0
VERTEX
  5
91A
  8
DIMENSIONI
 10
-14.63948918426808
 20
-12.69086930109174
 30
0.0
  0
VERTEX
  5
91B
  8
DIMENSIONI
 10
-14.71517133766041
 20
-12.84453818014779
 30
0.0
  0
VERTEX
  5
91C
  8
DIMENSIONI
 10
-14.78440068869286
 20
-13.01203449283215
 30
0.0
  0
VERTEX
  5
91D
  8
DIMENSIONI
 10
-14.84717723736543
 20
-13.19335823914484
 30
0.0
  0
VERTEX
  5
91E
  8
DIMENSIONI
 10
-14.90350098367811
 20
-13.38850941908584
 30
0.0
  0
VERTEX
  5
91F
  8
DIMENSIONI
 10
-14.7972602019672
 20
-13.32006362262566
 30
0.0
  0
VERTEX
  5
920
  8
DIMENSIONI
 10
-14.69092723736543
 20
-13.26074393236018
 30
0.0
  0
VERTEX
  5
921
  8
DIMENSIONI
 10
-14.5845020898728
 20
-13.21055034828938
 30
0.0
  0
VERTEX
  5
922
  8
DIMENSIONI
 10
-14.47798475948932
 20
-13.16948287041327
 30
0.0
  0
VERTEX
  5
923
  8
DIMENSIONI
 10
-14.37137524621498
 20
-13.13754149873186
 30
0.0
  0
VERTEX
  5
924
  8
DIMENSIONI
 10
-14.26467355004979
 20
-13.11472623324513
 30
0.0
  0
VERTEX
  5
925
  8
DIMENSIONI
 10
-14.15787967099375
 20
-13.1010370739531
 30
0.0
  0
VERTEX
  5
926
  8
DIMENSIONI
 10
-14.05099360904684
 20
-13.09647402085575
 30
0.0
  0
VERTEX
  5
927
  8
DIMENSIONI
 10
-13.9501916178964
 20
-13.10163626274366
 30
0.0
  0
VERTEX
  5
928
  8
DIMENSIONI
 10
-13.85280039370761
 20
-13.11712298840738
 30
0.0
  0
VERTEX
  5
929
  8
DIMENSIONI
 10
-13.75881993648047
 20
-13.1429341978469
 30
0.0
  0
VERTEX
  5
92A
  8
DIMENSIONI
 10
-13.66825024621498
 20
-13.17906989106224
 30
0.0
  0
VERTEX
  5
92B
  8
DIMENSIONI
 10
-13.58109132291115
 20
-13.22553006805339
 30
0.0
  0
VERTEX
  5
92C
  8
DIMENSIONI
 10
-13.49734316656897
 20
-13.28231472882035
 30
0.0
  0
VERTEX
  5
92D
  8
DIMENSIONI
 10
-13.41700577718843
 20
-13.34942387336313
 30
0.0
  0
VERTEX
  5
92E
  8
DIMENSIONI
 10
-13.34007915476956
 20
-13.42685750168171
 30
0.0
  0
VERTEX
  5
92F
  8
DIMENSIONI
 10
-13.26955924326513
 20
-13.51240322439557
 30
0.0
  0
VERTEX
  5
930
  8
DIMENSIONI
 10
-13.20844198662796
 20
-13.60384865212419
 30
0.0
  0
VERTEX
  5
931
  8
DIMENSIONI
 10
-13.15672738485805
 20
-13.70119378486755
 30
0.0
  0
VERTEX
  5
932
  8
DIMENSIONI
 10
-13.1144154379554
 20
-13.80443862262566
 30
0.0
  0
VERTEX
  5
933
  8
DIMENSIONI
 10
-13.08150614592
 20
-13.91358316539853
 30
0.0
  0
VERTEX
  5
934
  8
DIMENSIONI
 10
-13.05799950875186
 20
-14.02862741318614
 30
0.0
  0
VERTEX
  5
935
  8
DIMENSIONI
 10
-13.04389552645097
 20
-14.1495713659885
 30
0.0
  0
VERTEX
  5
936
  8
DIMENSIONI
 10
-13.03919419901734
 20
-14.2764150238056
 30
0.0
  0
VERTEX
  5
937
  8
DIMENSIONI
 10
-13.0439416178964
 20
-14.4004010120062
 30
0.0
  0
VERTEX
  5
938
  8
DIMENSIONI
 10
-13.05818387453357
 20
-14.52162151348112
 30
0.0
  0
VERTEX
  5
939
  8
DIMENSIONI
 10
-13.08192096892885
 20
-14.64007652823038
 30
0.0
  0
VERTEX
  5
93A
  8
DIMENSIONI
 10
-13.11515290108224
 20
-14.75576605625398
 30
0.0
  0
VERTEX
  5
93B
  8
DIMENSIONI
 10
-13.15787967099375
 20
-14.86869009755192
 30
0.0
  0
VERTEX
  5
93C
  8
DIMENSIONI
 10
-13.21010127866336
 20
-14.97884865212419
 30
0.0
  0
VERTEX
  5
93D
  8
DIMENSIONI
 10
-13.27181772409109
 20
-15.0862417199708
 30
0.0
  0
VERTEX
  5
93E
  8
DIMENSIONI
 10
-13.34302900727693
 20
-15.19086930109174
 30
0.0
  0
VERTEX
  5
93F
  8
DIMENSIONI
 10
-13.43816175063976
 20
-15.30840248693245
 30
0.0
  0
VERTEX
  5
940
  8
DIMENSIONI
 10
-13.54066912527103
 20
-15.41026458132773
 30
0.0
  0
VERTEX
  5
941
  8
DIMENSIONI
 10
-13.65055113117074
 20
-15.49645558427758
 30
0.0
  0
VERTEX
  5
942
  8
DIMENSIONI
 10
-13.76780776833888
 20
-15.56697549578201
 30
0.0
  0
VERTEX
  5
943
  8
DIMENSIONI
 10
-13.89243903677546
 20
-15.621824315841
 30
0.0
  0
VERTEX
  5
944
  8
DIMENSIONI
 10
-14.02444493648047
 20
-15.66100204445457
 30
0.0
  0
VERTEX
  5
945
  8
DIMENSIONI
 10
-14.16382546745392
 20
-15.68450868162271
 30
0.0
  0
VERTEX
  5
946
  8
DIMENSIONI
 10
-14.31058062969581
 20
-15.69234422734543
 30
0.0
  0
VERTEX
  5
947
  8
DIMENSIONI
 10
-14.41115216361911
 20
-15.68810381436608
 30
0.0
  0
VERTEX
  5
948
  8
DIMENSIONI
 10
-14.50785201612649
 20
-15.67538257542802
 30
0.0
  0
VERTEX
  5
949
  8
DIMENSIONI
 10
-14.60068018721793
 20
-15.65418051053127
 30
0.0
  0
VERTEX
  5
94A
  8
DIMENSIONI
 10
-14.68963667689345
 20
-15.62449761967581
 30
0.0
  0
VERTEX
  5
94B
  8
DIMENSIONI
 10
-14.77472148515304
 20
-15.58633390286165
 30
0.0
  0
VERTEX
  5
94C
  8
DIMENSIONI
 10
-14.85593461199669
 20
-15.53968936008879
 30
0.0
  0
VERTEX
  5
94D
  8
DIMENSIONI
 10
-14.93327605742442
 20
-15.48456399135723
 30
0.0
  0
VERTEX
  5
94E
  8
DIMENSIONI
 10
-15.00674582143622
 20
-15.42095779666696
 30
0.0
  0
VERTEX
  5
94F
  8
DIMENSIONI
 10
-15.13810644090525
 20
-15.28406620374661
 30
0.0
  0
VERTEX
  5
950
  8
DIMENSIONI
 10
-15.25195231111174
 20
-15.13740322439558
 30
0.0
  0
VERTEX
  5
951
  8
DIMENSIONI
 10
-15.34828343205569
 20
-14.98096885861386
 30
0.0
  0
VERTEX
  5
952
  8
DIMENSIONI
 10
-15.42709980373711
 20
-14.81476310640148
 30
0.0
  0
VERTEX
  5
953
  8
DIMENSIONI
 10
-15.48840142615599
 20
-14.63878596775841
 30
0.0
  0
VERTEX
  5
954
  8
DIMENSIONI
 10
-15.53218829931233
 20
-14.45303744268466
 30
0.0
  0
VERTEX
  5
955
  8
DIMENSIONI
 10
-15.55846042320613
 20
-14.25751753118024
 30
0.0
  0
VERTEX
  5
956
  8
DIMENSIONI
 10
-15.5672177978374
 20
-14.05222623324513
 30
0.0
  0
VERTEX
  5
957
  8
DIMENSIONI
 10
-15.55375909577251
 20
-13.78710823914484
 30
0.0
  0
VERTEX
  5
958
  8
DIMENSIONI
 10
-15.51338298957782
 20
-13.52862741318614
 30
0.0
  0
VERTEX
  5
959
  8
DIMENSIONI
 10
-15.44608947925333
 20
-13.27678375536903
 30
0.0
  0
VERTEX
  5
95A
  8
DIMENSIONI
 10
-15.35187856479905
 20
-13.03157726569351
 30
0.0
  0
VERTEX
  5
95B
  8
DIMENSIONI
 10
-15.23268608692295
 20
-12.79651089401209
 30
0.0
  0
VERTEX
  5
95C
  8
DIMENSIONI
 10
-15.09044788633298
 20
-12.57508759017729
 30
0.0
  0
VERTEX
  5
95D
  8
DIMENSIONI
 10
-14.92516396302914
 20
-12.36730735418909
 30
0.0
  0
VERTEX
  5
95E
  8
DIMENSIONI
 10
-14.73683431701144
 20
-12.17317018604749
 30
0.0
  0
VERTEX
  5
95F
  8
DIMENSIONI
 10
-14.53910201612649
 20
-12.00115691171121
 30
0.0
  0
VERTEX
  5
960
  8
DIMENSIONI
 10
-14.34561012822088
 20
-11.85974835713894
 30
0.0
  0
VERTEX
  5
961
  8
DIMENSIONI
 10
-14.15635865329463
 20
-11.74894452233068
 30
0.0
  0
VERTEX
  5
962
  8
DIMENSIONI
 10
-13.97134759134773
 20
-11.66874540728643
 30
0.0
  0
VERTEX
  5
963
  8
DIMENSIONI
 10
-13.79159095417958
 20
-11.61196074651947
 30
0.0
  0
VERTEX
  5
964
  8
DIMENSIONI
 10
-13.61810275358961
 20
-11.57140027454307
 30
0.0
  0
VERTEX
  5
965
  8
DIMENSIONI
 10
-13.45088298957782
 20
-11.54706399135723
 30
0.0
  0
VERTEX
  5
966
  8
DIMENSIONI
 10
-13.28993166214419
 20
-11.53895189696195
 30
0.0
  0
SEQEND
  5
A9C
  8
DIMENSIONI
  0
POLYLINE
  5
D6
  8
DIMENSIONI
 66
     1
 10
0.0
 20
0.0
 30
0.0
 70
     1
  0
VERTEX
  5
967
  8
DIMENSIONI
 10
-14.95364847630348
 20
-13.60384865212419
 30
0.0
  0
VERTEX
  5
968
  8
DIMENSIONI
 10
-14.99347148515304
 20
-13.96373065802389
 30
0.0
  0
VERTEX
  5
969
  8
DIMENSIONI
 10
-15.00674582143622
 20
-14.24691649873186
 30
0.0
  0
VERTEX
  5
96A
  8
DIMENSIONI
 10
-15.00020083618548
 20
-14.39155145448407
 30
0.0
  0
VERTEX
  5
96B
  8
DIMENSIONI
 10
-14.98056588043327
 20
-14.54227048103274
 30
0.0
  0
VERTEX
  5
96C
  8
DIMENSIONI
 10
-14.94784095417959
 20
-14.69907357837788
 30
0.0
  0
VERTEX
  5
96D
  8
DIMENSIONI
 10
-14.90202605742442
 20
-14.86196074651947
 30
0.0
  0
VERTEX
  5
96E
  8
DIMENSIONI
 10
-14.8433055559495
 20
-15.01931694120973
 30
0.0
  0
VERTEX
  5
96F
  8
DIMENSIONI
 10
-14.77186381553652
 20
-15.15952711820088
 30
0.0
  0
VERTEX
  5
970
  8
DIMENSIONI
 10
-14.68770083618548
 20
-15.28259127749292
 30
0.0
  0
VERTEX
  5
971
  8
DIMENSIONI
 10
-14.5908166178964
 20
-15.38850941908584
 30
0.0
  0
VERTEX
  5
972
  8
DIMENSIONI
 10
-14.51153933176071
 20
-15.44916576126873
 30
0.0
  0
VERTEX
  5
973
  8
DIMENSIONI
 10
-14.42414995122973
 20
-15.4924917199708
 30
0.0
  0
VERTEX
  5
974
  8
DIMENSIONI
 10
-14.32864847630348
 20
-15.51848729519204
 30
0.0
  0
VERTEX
  5
975
  8
DIMENSIONI
 10
-14.22503490698194
 20
-15.52715248693245
 30
0.0
  0
VERTEX
  5
976
  8
DIMENSIONI
 10
-14.16172830668696
 20
-15.52337298840738
 30
0.0
  0
VERTEX
  5
977
  8
DIMENSIONI
 10
-14.1001270898728
 20
-15.51203449283215
 30
0.0
  0
VERTEX
  5
978
  8
DIMENSIONI
 10
-14.04023125653947
 20
-15.49313700020679
 30
0.0
  0
VERTEX
  5
979
  8
DIMENSIONI
 10
-13.98204080668696
 20
-15.46668051053127
 30
0.0
  0
VERTEX
  5
97A
  8
DIMENSIONI
 10
-13.87077605742443
 20
-15.39109054002979
 30
0.0
  0
VERTEX
  5
97B
  8
DIMENSIONI
 10
-13.76633284208519
 20
-15.28526458132773
 30
0.0
  0
VERTEX
  5
97C
  8
DIMENSIONI
 10
-13.7189738819082
 20
-15.22156620374661
 30
0.0
  0
VERTEX
  5
97D
  8
DIMENSIONI
 10
-13.67792944975481
 20
-15.1514150238056
 30
0.0
  0
VERTEX
  5
97E
  8
DIMENSIONI
 10
-13.64319954562501
 20
-15.07481104150472
 30
0.0
  0
VERTEX
  5
97F
  8
DIMENSIONI
 10
-13.61478416951882
 20
-14.99175425684395
 30
0.0
  0
VERTEX
  5
980
  8
DIMENSIONI
 10
-13.57689700137723
 20
-14.80628228044277
 30
0.0
  0
VERTEX
  5
981
  8
DIMENSIONI
 10
-13.56426794533003
 20
-14.59499909460206
 30
0.0
  0
VERTEX
  5
982
  8
DIMENSIONI
 10
-13.57680481848637
 20
-14.35126753118024
 30
0.0
  0
VERTEX
  5
983
  8
DIMENSIONI
 10
-13.6144154379554
 20
-14.12449761967581
 30
0.0
  0
VERTEX
  5
984
  8
DIMENSIONI
 10
-13.67709980373711
 20
-13.91468936008879
 30
0.0
  0
VERTEX
  5
985
  8
DIMENSIONI
 10
-13.7648579158315
 20
-13.72184275241917
 30
0.0
  0
VERTEX
  5
986
  8
DIMENSIONI
 10
-13.81763262084625
 20
-13.63542129224218
 30
0.0
  0
VERTEX
  5
987
  8
DIMENSIONI
 10
-13.87566175063976
 20
-13.56052269342213
 30
0.0
  0
VERTEX
  5
988
  8
DIMENSIONI
 10
-13.93894530521203
 20
-13.497146955959
 30
0.0
  0
VERTEX
  5
989
  8
DIMENSIONI
 10
-14.00748328456307
 20
-13.4452940798528
 30
0.0
  0
VERTEX
  5
98A
  8
DIMENSIONI
 10
-14.08127568869286
 20
-13.40496406510354
 30
0.0
  0
VERTEX
  5
98B
  8
DIMENSIONI
 10
-14.16032251760141
 20
-13.37615691171121
 30
0.0
  0
VERTEX
  5
98C
  8
DIMENSIONI
 10
-14.24462377128873
 20
-13.35887261967581
 30
0.0
  0
VERTEX
  5
98D
  8
DIMENSIONI
 10
-14.33417944975481
 20
-13.35311118899735
 30
0.0
  0
VERTEX
  5
98E
  8
DIMENSIONI
 10
-14.45032989223268
 20
-13.36491059902684
 30
0.0
  0
VERTEX
  5
98F
  8
DIMENSIONI
 10
-14.57459242910584
 20
-13.40030882911534
 30
0.0
  0
VERTEX
  5
990
  8
DIMENSIONI
 10
-14.73351573294065
 20
-13.47479260492655
 30
0.0
  0
SEQEND
  5
A9D
  8
DIMENSIONI
  0
POLYLINE
  5
D7
  8
DIMENSIONI
 66
     1
 10
0.0
 20
0.0
 30
0.0
 70
     1
  0
VERTEX
  5
991
  8
DIMENSIONI
 10
-12.05099360904684
 20
-15.04927638073776
 30
0.0
  0
VERTEX
  5
992
  8
DIMENSIONI
 10
-11.9844375618492
 20
-15.05526826864336
 30
0.0
  0
VERTEX
  5
993
  8
DIMENSIONI
 10
-11.92341248810289
 20
-15.07324393236018
 30
0.0
  0
VERTEX
  5
994
  8
DIMENSIONI
 10
-11.8679183878079
 20
-15.1032033718882
 30
0.0
  0
VERTEX
  5
995
  8
DIMENSIONI
 10
-11.81795526096425
 20
-15.14514658722743
 30
0.0
  0
VERTEX
  5
996
  8
DIMENSIONI
 10
-11.776657325861
 20
-15.19557062852537
 30
0.0
  0
VERTEX
  5
997
  8
DIMENSIONI
 10
-11.74715880078725
 20
-15.2509725459295
 30
0.0
  0
VERTEX
  5
998
  8
DIMENSIONI
 10
-11.72945968574301
 20
-15.31135233943982
 30
0.0
  0
VERTEX
  5
999
  8
DIMENSIONI
 10
-11.72355998072826
 20
-15.37671000905634
 30
0.0
  0
VERTEX
  5
99A
  8
DIMENSIONI
 10
-11.72955186863386
 20
-15.44206767867286
 30
0.0
  0
VERTEX
  5
99B
  8
DIMENSIONI
 10
-11.74752753235068
 20
-15.50244747218319
 30
0.0
  0
VERTEX
  5
99C
  8
DIMENSIONI
 10
-11.7774869718787
 20
-15.55784938958731
 30
0.0
  0
VERTEX
  5
99D
  8
DIMENSIONI
 10
-11.81943018721793
 20
-15.60827343088525
 30
0.0
  0
VERTEX
  5
99E
  8
DIMENSIONI
 10
-11.86985422851587
 20
-15.65021664622448
 30
0.0
  0
VERTEX
  5
99F
  8
DIMENSIONI
 10
-11.92525614592
 20
-15.68017608575251
 30
0.0
  0
VERTEX
  5
9A0
  8
DIMENSIONI
 10
-11.98563593943032
 20
-15.69815174946932
 30
0.0
  0
VERTEX
  5
9A1
  8
DIMENSIONI
 10
-12.05099360904684
 20
-15.70414363737493
 30
0.0
  0
VERTEX
  5
9A2
  8
DIMENSIONI
 10
-12.11635127866336
 20
-15.69815174946932
 30
0.0
  0
VERTEX
  5
9A3
  8
DIMENSIONI
 10
-12.17673107217368
 20
-15.68017608575251
 30
0.0
  0
VERTEX
  5
9A4
  8
DIMENSIONI
 10
-12.23213298957781
 20
-15.65021664622448
 30
0.0
  0
VERTEX
  5
9A5
  8
DIMENSIONI
 10
-12.28255703087575
 20
-15.60827343088525
 30
0.0
  0
VERTEX
  5
9A6
  8
DIMENSIONI
 10
-12.32450024621498
 20
-15.55784938958731
 30
0.0
  0
VERTEX
  5
9A7
  8
DIMENSIONI
 10
-12.35445968574301
 20
-15.50244747218319
 30
0.0
  0
VERTEX
  5
9A8
  8
DIMENSIONI
 10
-12.37243534945982
 20
-15.44206767867286
 30
0.0
  0
VERTEX
  5
9A9
  8
DIMENSIONI
 10
-12.37842723736543
 20
-15.37671000905634
 30
0.0
  0
VERTEX
  5
9AA
  8
DIMENSIONI
 10
-12.37243534945982
 20
-15.3101539618587
 30
0.0
  0
VERTEX
  5
9AB
  8
DIMENSIONI
 10
-12.35445968574301
 20
-15.24912888811239
 30
0.0
  0
VERTEX
  5
9AC
  8
DIMENSIONI
 10
-12.32450024621498
 20
-15.19363478781741
 30
0.0
  0
VERTEX
  5
9AD
  8
DIMENSIONI
 10
-12.28255703087575
 20
-15.14367166097375
 30
0.0
  0
VERTEX
  5
9AE
  8
DIMENSIONI
 10
-12.23213298957781
 20
-15.1023737258705
 30
0.0
  0
VERTEX
  5
9AF
  8
DIMENSIONI
 10
-12.17673107217368
 20
-15.07287520079676
 30
0.0
  0
VERTEX
  5
9B0
  8
DIMENSIONI
 10
-12.11635127866336
 20
-15.05517608575251
 30
0.0
  0
SEQEND
  5
A9E
  8
DIMENSIONI
  0
POLYLINE
  5
D8
  8
DIMENSIONI
 66
     1
 10
0.0
 20
0.0
 30
0.0
 70
     1
  0
VERTEX
  5
9B1
  8
DIMENSIONI
 10
-11.07754228161321
 20
-13.64514658722743
 30
0.0
  0
VERTEX
  5
9B2
  8
DIMENSIONI
 10
-11.06463667689345
 20
-13.31485528929233
 30
0.0
  0
VERTEX
  5
9B3
  8
DIMENSIONI
 10
-11.02591986273416
 20
-13.00834717719794
 30
0.0
  0
VERTEX
  5
9B4
  8
DIMENSIONI
 10
-10.99688225211469
 20
-12.864011815841
 30
0.0
  0
VERTEX
  5
9B5
  8
DIMENSIONI
 10
-10.96139183913534
 20
-12.72562225094425
 30
0.0
  0
VERTEX
  5
9B6
  8
DIMENSIONI
 10
-10.91944862379611
 20
-12.59317848250767
 30
0.0
  0
VERTEX
  5
9B7
  8
DIMENSIONI
 10
-10.87105260609699
 20
-12.46668051053127
 30
0.0
  0
VERTEX
  5
9B8
  8
DIMENSIONI
 10
-10.75932694238018
 20
-12.23539363737493
 30
0.0
  0
VERTEX
  5
9B9
  8
DIMENSIONI
 10
-10.69710349105274
 20
-12.13157265654897
 30
0.0
  0
VERTEX
  5
9BA
  8
DIMENSIONI
 10
-10.63063962674596
 20
-12.03563331289115
 30
0.0
  0
VERTEX
  5
9BB
  8
DIMENSIONI
 10
-10.55993534945982
 20
-11.94757560640148
 30
0.0
  0
VERTEX
  5
9BC
  8
DIMENSIONI
 10
-10.48499065919434
 20
-11.86739953707994
 30
0.0
  0
VERTEX
  5
9BD
  8
DIMENSIONI
 10
-10.4058055559495
 20
-11.79510510492655
 30
0.0
  0
VERTEX
  5
9BE
  8
DIMENSIONI
 10
-10.32238003972531
 20
-11.7306923099413
 30
0.0
  0
VERTEX
  5
9BF
  8
DIMENSIONI
 10
-10.18853048220318
 20
-11.64680587926283
 30
0.0
  0
VERTEX
  5
9C0
  8
DIMENSIONI
 10
-10.05246853530053
 20
-11.58688700020678
 30
0.0
  0
VERTEX
  5
9C1
  8
DIMENSIONI
 10
-9.914194199017343
 20
-11.55093567277316
 30
0.0
  0
VERTEX
  5
9C2
  8
DIMENSIONI
 10
-9.773707473353626
 20
-11.53895189696195
 30
0.0
  0
VERTEX
  5
9C3
  8
DIMENSIONI
 10
-9.660138151819703
 20
-11.54628043678496
 30
0.0
  0
VERTEX
  5
9C4
  8
DIMENSIONI
 10
-9.549518682793156
 20
-11.56826605625398
 30
0.0
  0
VERTEX
  5
9C5
  8
DIMENSIONI
 10
-9.441849066273981
 20
-11.60490875536903
 30
0.0
  0
VERTEX
  5
9C6
  8
DIMENSIONI
 10
-9.33712930226218
 20
-11.65620853413009
 30
0.0
  0
VERTEX
  5
9C7
  8
DIMENSIONI
 10
-9.235359390757754
 20
-11.72216539253717
 30
0.0
  0
VERTEX
  5
9C8
  8
DIMENSIONI
 10
-9.136539331760705
 20
-11.80277933059027
 30
0.0
  0
VERTEX
  5
9C9
  8
DIMENSIONI
 10
-9.04066912527103
 20
-11.89805034828938
 30
0.0
  0
VERTEX
  5
9CA
  8
DIMENSIONI
 10
-8.94774877128873
 20
-12.00797844563451
 30
0.0
  0
VERTEX
  5
9CB
  8
DIMENSIONI
 10
-8.840586160669261
 20
-12.15971148398259
 30
0.0
  0
VERTEX
  5
9CC
  8
DIMENSIONI
 10
-8.747711898132387
 20
-12.32435012705044
 30
0.0
  0
VERTEX
  5
9CD
  8
DIMENSIONI
 10
-8.66912598367811
 20
-12.50189437483805
 30
0.0
  0
VERTEX
  5
9CE
  8
DIMENSIONI
 10
-8.604828417306429
 20
-12.69234422734543
 30
0.0
  0
VERTEX
  5
9CF
  8
DIMENSIONI
 10
-8.554819199017343
 20
-12.89569968457257
 30
0.0
  0
VERTEX
  5
9D0
  8
DIMENSIONI
 10
-8.519098328810852
 20
-13.11196074651947
 30
0.0
  0
VERTEX
  5
9D1
  8
DIMENSIONI
 10
-8.497665806686959
 20
-13.34112741318614
 30
0.0
  0
VERTEX
  5
9D2
  8
DIMENSIONI
 10
-8.490521632645661
 20
-13.58319968457257
 30
0.0
  0
VERTEX
  5
9D3
  8
DIMENSIONI
 10
-8.503058505802004
 20
-13.9181923099413
 30
0.0
  0
VERTEX
  5
9D4
  8
DIMENSIONI
 10
-8.54066912527103
 20
-14.22700499430708
 30
0.0
  0
VERTEX
  5
9D5
  8
DIMENSIONI
 10
-8.5688770898728
 20
-14.37159385861386
 30
0.0
  0
VERTEX
  5
9D6
  8
DIMENSIONI
 10
-8.603353491052742
 20
-14.50963773766991
 30
0.0
  0
VERTEX
  5
9D7
  8
DIMENSIONI
 10
-8.644098328810852
 20
-14.64113663147522
 30
0.0
  0
VERTEX
  5
9D8
  8
DIMENSIONI
 10
-8.691111603147137
 20
-14.76609054002979
 30
0.0
  0
VERTEX
  5
9D9
  8
DIMENSIONI
 10
-8.798320305212034
 20
-14.99276826864336
 30
0.0
  0
VERTEX
  5
9DA
  8
DIMENSIONI
 10
-8.91935644090525
 20
-15.18607579076726
 30
0.0
  0
VERTEX
  5
9DB
  8
DIMENSIONI
 10
-8.985059796362478
 20
-15.27021572439558
 30
0.0
  0
VERTEX
  5
9DC
  8
DIMENSIONI
 10
-9.054220010226784
 20
-15.34601310640148
 30
0.0
  0
VERTEX
  5
9DD
  8
DIMENSIONI
 10
-9.12683708249817
 20
-15.41346793678495
 30
0.0
  0
VERTEX
  5
9DE
  8
DIMENSIONI
 10
-9.202911013176635
 20
-15.47258021554602
 30
0.0
  0
VERTEX
  5
9DF
  8
DIMENSIONI
 10
-9.357132989577815
 20
-15.56872697070826
 30
0.0
  0
VERTEX
  5
9E0
  8
DIMENSIONI
 10
-9.508589479253331
 20
-15.63740322439557
 30
0.0
  0
VERTEX
  5
9E1
  8
DIMENSIONI
 10
-9.657280482203184
 20
-15.67860897660796
 30
0.0
  0
VERTEX
  5
9E2
  8
DIMENSIONI
 10
-9.803205998427373
 20
-15.69234422734543
 30
0.0
  0
VERTEX
  5
9E3
  8
DIMENSIONI
 10
-9.94327790108224
 20
-15.68178928634248
 30
0.0
  0
VERTEX
  5
9E4
  8
DIMENSIONI
 10
-10.0773579158315
 20
-15.65012446333363
 30
0.0
  0
VERTEX
  5
9E5
  8
DIMENSIONI
 10
-10.20544604267516
 20
-15.59734975831888
 30
0.0
  0
VERTEX
  5
9E6
  8
DIMENSIONI
 10
-10.32754228161321
 20
-15.52346517129823
 30
0.0
  0
VERTEX
  5
9E7
  8
DIMENSIONI
 10
-10.44364663264566
 20
-15.42847070227168
 30
0.0
  0
VERTEX
  5
9E8
  8
DIMENSIONI
 10
-10.55375909577251
 20
-15.31236635123923
 30
0.0
  0
VERTEX
  5
9E9
  8
DIMENSIONI
 10
-10.65787967099374
 20
-15.17515211820088
 30
0.0
  0
VERTEX
  5
9EA
  8
DIMENSIONI
 10
-10.75600835830938
 20
-15.01682800315664
 30
0.0
  0
VERTEX
  5
9EB
  8
DIMENSIONI
 10
-10.83136787158372
 20
-14.87085639548702
 30
0.0
  0
VERTEX
  5
9EC
  8
DIMENSIONI
 10
-10.89667944975481
 20
-14.71760233943982
 30
0.0
  0
VERTEX
  5
9ED
  8
DIMENSIONI
 10
-10.95194309282265
 20
-14.55706583501505
 30
0.0
  0
VERTEX
  5
9EE
  8
DIMENSIONI
 10
-10.99715880078725
 20
-14.38924688221269
 30
0.0
  0
VERTEX
  5
9EF
  8
DIMENSIONI
 10
-11.03232657364861
 20
-14.21414548103274
 30
0.0
  0
VERTEX
  5
9F0
  8
DIMENSIONI
 10
-11.05744641140672
 20
-14.03176163147522
 30
0.0
  0
VERTEX
  5
9F1
  8
DIMENSIONI
 10
-11.07251831406159
 20
-13.84209533354012
 30
0.0
  0
SEQEND
  5
A9F
  8
DIMENSIONI
  0
POLYLINE
  5
D9
  8
DIMENSIONI
 66
     1
 10
0.0
 20
0.0
 30
0.0
 70
     1
  0
VERTEX
  5
9F2
  8
DIMENSIONI
 10
-10.49937119016779
 20
-13.7188928999118
 30
0.0
  0
VERTEX
  5
9F3
  8
DIMENSIONI
 10
-10.48664995122973
 20
-14.11288257542802
 30
0.0
  0
VERTEX
  5
9F4
  8
DIMENSIONI
 10
-10.44848623441557
 20
-14.4688928999118
 30
0.0
  0
VERTEX
  5
9F5
  8
DIMENSIONI
 10
-10.41986344680495
 20
-14.63265580551652
 30
0.0
  0
VERTEX
  5
9F6
  8
DIMENSIONI
 10
-10.38488003972531
 20
-14.78692387336313
 30
0.0
  0
VERTEX
  5
9F7
  8
DIMENSIONI
 10
-10.34353601317664
 20
-14.93169710345162
 30
0.0
  0
VERTEX
  5
9F8
  8
DIMENSIONI
 10
-10.29583136715894
 20
-15.06697549578201
 30
0.0
  0
VERTEX
  5
9F9
  8
DIMENSIONI
 10
-10.25121484798489
 20
-15.16998987631298
 30
0.0
  0
VERTEX
  5
9FA
  8
DIMENSIONI
 10
-10.20143608692295
 20
-15.25926900610649
 30
0.0
  0
VERTEX
  5
9FB
  8
DIMENSIONI
 10
-10.14649508397309
 20
-15.33481288516254
 30
0.0
  0
VERTEX
  5
9FC
  8
DIMENSIONI
 10
-10.08639183913534
 20
-15.39662151348112
 30
0.0
  0
VERTEX
  5
9FD
  8
DIMENSIONI
 10
-10.02112635240967
 20
-15.44469489106224
 30
0.0
  0
VERTEX
  5
9FE
  8
DIMENSIONI
 10
-9.950698623796105
 20
-15.4790330179059
 30
0.0
  0
VERTEX
  5
9FF
  8
DIMENSIONI
 10
-9.875108653294628
 20
-15.49963589401209
 30
0.0
  0
VERTEX
  5
A00
  8
DIMENSIONI
 10
-9.794356440905249
 20
-15.50650351938083
 30
0.0
  0
VERTEX
  5
A01
  8
DIMENSIONI
 10
-9.71397296007929
 20
-15.49756177896785
 30
0.0
  0
VERTEX
  5
A02
  8
DIMENSIONI
 10
-9.632114552999644
 20
-15.47073655772891
 30
0.0
  0
VERTEX
  5
A03
  8
DIMENSIONI
 10
-9.54878121966631
 20
-15.42602785566401
 30
0.0
  0
VERTEX
  5
A04
  8
DIMENSIONI
 10
-9.46397296007929
 20
-15.36343567277316
 30
0.0
  0
VERTEX
  5
A05
  8
DIMENSIONI
 10
-9.383589479253331
 20
-15.27982579076726
 30
0.0
  0
VERTEX
  5
A06
  8
DIMENSIONI
 10
-9.313530482203184
 20
-15.17206399135723
 30
0.0
  0
VERTEX
  5
A07
  8
DIMENSIONI
 10
-9.253795968928848
 20
-15.04015027454307
 30
0.0
  0
VERTEX
  5
A08
  8
DIMENSIONI
 10
-9.204385939430322
 20
-14.88408464032478
 30
0.0
  0
VERTEX
  5
A09
  8
DIMENSIONI
 10
-9.145020157719408
 20
-14.60440174946932
 30
0.0
  0
VERTEX
  5
A0A
  8
DIMENSIONI
 10
-9.102616027925897
 20
-14.27272770817139
 30
0.0
  0
VERTEX
  5
A0B
  8
DIMENSIONI
 10
-9.077173550049793
 20
-13.88906251643097
 30
0.0
  0
VERTEX
  5
A0C
  8
DIMENSIONI
 10
-9.06869272409109
 20
-13.45340617424808
 30
0.0
  0
VERTEX
  5
A0D
  8
DIMENSIONI
 10
-9.077542281613212
 20
-13.12541944858437
 30
0.0
  0
VERTEX
  5
A0E
  8
DIMENSIONI
 10
-9.104090954179586
 20
-12.82582505330413
 30
0.0
  0
VERTEX
  5
A0F
  8
DIMENSIONI
 10
-9.148338741790205
 20
-12.55462298840738
 30
0.0
  0
VERTEX
  5
A10
  8
DIMENSIONI
 10
-9.210285644445072
 20
-12.3118132538941
 30
0.0
  0
VERTEX
  5
A11
  8
DIMENSIONI
 10
-9.267254670993744
 20
-12.15454924209469
 30
0.0
  0
VERTEX
  5
A12
  8
DIMENSIONI
 10
-9.331967060374275
 20
-12.02199024504454
 30
0.0
  0
VERTEX
  5
A13
  8
DIMENSIONI
 10
-9.404422812586665
 20
-11.91413626274366
 30
0.0
  0
VERTEX
  5
A14
  8
DIMENSIONI
 10
-9.484621927630913
 20
-11.83098729519203
 30
0.0
  0
VERTEX
  5
A15
  8
DIMENSIONI
 10
-9.548228122321177
 20
-11.78839879961681
 30
0.0
  0
VERTEX
  5
A16
  8
DIMENSIONI
 10
-9.618102753589614
 20
-11.75797844563451
 30
0.0
  0
VERTEX
  5
A17
  8
DIMENSIONI
 10
-9.694245821436223
 20
-11.73972623324513
 30
0.0
  0
VERTEX
  5
A18
  8
DIMENSIONI
 10
-9.776657325861
 20
-11.73364216244867
 30
0.0
  0
VERTEX
  5
A19
  8
DIMENSIONI
 10
-9.874186824386074
 20
-11.74488847513304
 30
0.0
  0
VERTEX
  5
A1A
  8
DIMENSIONI
 10
-9.96618534945982
 20
-11.77862741318614
 30
0.0
  0
VERTEX
  5
A1B
  8
DIMENSIONI
 10
-10.05265290108224
 20
-11.83485897660796
 30
0.0
  0
VERTEX
  5
A1C
  8
DIMENSIONI
 10
-10.13358947925333
 20
-11.91358316539853
 30
0.0
  0
VERTEX
  5
A1D
  8
DIMENSIONI
 10
-10.1845666178964
 20
-11.97917129224218
 30
0.0
  0
VERTEX
  5
A1E
  8
DIMENSIONI
 10
-10.23130334356012
 20
-12.05351679371711
 30
0.0
  0
VERTEX
  5
A1F
  8
DIMENSIONI
 10
-10.27379965624448
 20
-12.1366196698233
 30
0.0
  0
VERTEX
  5
A20
  8
DIMENSIONI
 10
-10.3120555559495
 20
-12.22847992056077
 30
0.0
  0
VERTEX
  5
A21
  8
DIMENSIONI
 10
-10.37584611642147
 20
-12.4384725459295
 30
0.0
  0
VERTEX
  5
A22
  8
DIMENSIONI
 10
-10.42267502497605
 20
-12.6834946698233
 30
0.0
  0
VERTEX
  5
A23
  8
DIMENSIONI
 10
-10.45622959724743
 20
-12.94510971407109
 30
0.0
  0
VERTEX
  5
A24
  8
DIMENSIONI
 10
-10.48019714886985
 20
-13.20488110050177
 30
0.0
  0
VERTEX
  5
A25
  8
DIMENSIONI
 10
-10.4945776798433
 20
-13.46280882911534
 30
0.0
  0
SEQEND
  5
AA0
  8
DIMENSIONI
  0
POLYLINE
  5
DA
  8
DIMENSIONI
 66
     1
 10
0.0
 20
0.0
 30
0.0
  0
VERTEX
  5
A26
  8
DIMENSIONI
 10
17.51799774219334
 20
17.50349078171185
 30
0.0
  0
VERTEX
  5
A27
  8
DIMENSIONI
 10
-11.02444493648046
 20
-11.03895189696195
 30
0.0
  0
SEQEND
  5
AA1
  8
DIMENSIONI
  0
POLYLINE
  5
DB
  8
DIMENSIONI
 66
     1
 10
0.0
 20
0.0
 30
0.0
  0
VERTEX
  5
A28
  8
DIMENSIONI
 10
-16.18963667689344
 20
-16.20414363737493
 30
0.0
  0
VERTEX
  5
A29
  8
DIMENSIONI
 10
-17.50349078171185
 20
-17.51799774219333
 30
0.0
  0
SEQEND
  5
AA2
  8
DIMENSIONI
  0
POLYLINE
  5
DC
  8
DIMENSIONI
 66
     1
 10
0.0
 20
0.0
 30
0.0
  0
VERTEX
  5
A2A
  8
DIMENSIONI
 10
19.80624335346407
 20
19.79173639298259
 30
0.0
  0
VERTEX
  5
A2B
  8
DIMENSIONI
 10
21.22045691583717
 20
18.37752283060949
 30
0.0
  0
SEQEND
  5
AA3
  8
DIMENSIONI
  0
POLYLINE
  5
DD
  8
DIMENSIONI
 66
     1
 10
0.0
 20
0.0
 30
0.0
  0
VERTEX
  5
A2C
  8
DIMENSIONI
 10
-19.79173639298259
 20
-19.80624335346407
 30
0.0
  0
VERTEX
  5
A2D
  8
DIMENSIONI
 10
-18.37752283060949
 20
-21.22045691583716
 30
0.0
  0
SEQEND
  5
AA4
  8
DIMENSIONI
  0
POLYLINE
  5
DE
  8
DIMENSIONI
 66
     1
 10
0.0
 20
0.0
 30
0.0
  0
VERTEX
  5
A2E
  8
DIMENSIONI
 10
19.80624335346407
 20
19.79173639298259
 30
0.0
  0
VERTEX
  5
A2F
  8
DIMENSIONI
 10
16.81089096100679
 20
18.2105975628984
 30
0.0
  0
SEQEND
  5
AA5
  8
DIMENSIONI
  0
POLYLINE
  5
DF
  8
DIMENSIONI
 66
     1
 10
0.0
 20
0.0
 30
0.0
  0
VERTEX
  5
A30
  8
DIMENSIONI
 10
16.81089096100679
 20
18.2105975628984
 30
0.0
  0
VERTEX
  5
A31
  8
DIMENSIONI
 10
18.22510452337988
 20
16.7963840005253
 30
0.0
  0
SEQEND
  5
AA6
  8
DIMENSIONI
  0
POLYLINE
  5
E0
  8
DIMENSIONI
 66
     1
 10
0.0
 20
0.0
 30
0.0
  0
VERTEX
  5
A32
  8
DIMENSIONI
 10
18.22510452337988
 20
16.7963840005253
 30
0.0
  0
VERTEX
  5
A33
  8
DIMENSIONI
 10
19.80624335346407
 20
19.79173639298259
 30
0.0
  0
SEQEND
  5
AA7
  8
DIMENSIONI
  0
POLYLINE
  5
E1
  8
DIMENSIONI
 66
     1
 10
0.0
 20
0.0
 30
0.0
  0
VERTEX
  5
A34
  8
DIMENSIONI
 10
-19.79173639298258
 20
-19.80624335346407
 30
0.0
  0
VERTEX
  5
A35
  8
DIMENSIONI
 10
-16.7963840005253
 20
-18.22510452337987
 30
0.0
  0
SEQEND
  5
AA8
  8
DIMENSIONI
  0
POLYLINE
  5
E2
  8
DIMENSIONI
 66
     1
 10
0.0
 20
0.0
 30
0.0
  0
VERTEX
  5
A36
  8
DIMENSIONI
 10
-16.7963840005253
 20
-18.22510452337987
 30
0.0
  0
VERTEX
  5
A37
  8
DIMENSIONI
 10
-18.21059756289839
 20
-16.81089096100678
 30
0.0
  0
SEQEND
  5
AA9
  8
DIMENSIONI
  0
POLYLINE
  5
E3
  8
DIMENSIONI
 66
     1
 10
0.0
 20
0.0
 30
0.0
  0
VERTEX
  5
A38
  8
DIMENSIONI
 10
-18.21059756289839
 20
-16.81089096100678
 30
0.0
  0
VERTEX
  5
A39
  8
DIMENSIONI
 10
-19.79173639298258
 20
-19.80624335346407
 30
0.0
  0
SEQEND
  5
AAA
  8
DIMENSIONI
  0
ENDSEC
  0
EOF
